Song name
# A B C D E F G H I J K L M N O P Q R S T U V W X Y Z

Weezer - December tab

-------------------------------------------------------------------------------
			     December - Weezer
-------------------------------------------------------------------------------

Tabbed by: cjpm105
Email: cjpm105@yahoo.com
Tuning: Guitar 1 - Standard.
        Guitar 2 - Standard.

Key
/  slide up
\  slide down
~  sustain

When asterisks separate two sets of lines, Guitar 2 follows Guitar 1 and they are played 
simultaneously. 

Intro
e|--------------------------------------------------------------------------|
B|--------------------------------------------------------------------------|
G|--------------------------------------------------------------------------|
D|--5--5--5--5--5--5--5--5--5--5--5--5--5--5--5--5--5--5--5--5--5--5--5--5--|
A|--5--5--5--5--5--5--3--3--3--3--3--3--5--5--5--5--5--5--3--3--3--3--3--3--|
E|--3--3--3--3--3--3--3--3--3--3--3--3--3--3--3--3--3--3--3--3--3--3--3--3--|
*****************************************************************************
e|--------------------------------------------------------------------------|
B|---------------8-----------------10----------------8-------------------8--|
G|--------------------------------------------------------------------------|
D|--10--9-----9-------9--10----10-------10--9-----9-------9--10---10--7-----|
A|--------------------------------------------------------------------------|
E|--------------------------------------------------------------------------|

Verse
e|--------------------------------------------------------------------------|
B|--------------------------------------------------------------------------|
G|--------------------------------------------------------------------------|
D|--5--5--5--5--5--5--5--5--5--5--5--5--7--7--7--7--7--7--7--7--7--7--7--7--|
A|--5--5--5--5--5--5--3--3--3--3--3--3--7--7--7--7--7--7--5--5--5--5--5--5--|
E|--3--3--3--3--3--3--3--3--3--3--3--3--5--5--5--5--5--5--5--5--5--5--5--5--|

e|--------------------------------------------------------------------------|
B|--------------------------------------------------------------------------|
G|--------------------------------------------------------------------------|
D|--5--5--5--5--5--5--5--5--5--5--5--5--7--7--7--7--7--7--7--7--7--7--7--7--|
A|--5--5--5--5--5--5--3--3--3--3--3--3--7--7--7--7--7--7--5--5--5--5--5--5--|
E|--3--3--3--3--3--3--3--3--3--3--3--3--5--5--5--5--5--5--5--5--5--5--5--5--|
*****************************************************************************
e|--------------------------------------------------------------------------|
B|--------------------------------------------------------------------------|
G|------------------------------------------------12-11-9-11~------11~------|
D|--------------------------------------10~---------------------------------|
A|--------------------------------------------------------------------------|
E|--------------------------------------------------------------------------|

Pre-chorus
e|--------------------------------------------------------------------------|
B|--------------------------------------------------------------------------|
G|--------------------------------------------------------------------------|
D|--9--9--9--9--9--9--9--9--9--9--9--9--9--9--9--9--9--9--9--9--9--9--9--9--|
A|--9--9--9--9--9--9--9--9--9--9--9--9--7--7--7--7--7--7--7--7--7--7--7--7--|
E|--7--7--7--7--7--7--7--7--7--7--7--7--7--7--7--7--7--7--7--7--7--7--7--7--|
*****************************************************************************
e|--------------------------------------------------------------------------|
B|--------------------------------------------------------------------------|
G|---------------------11------------------------------12-----11------------|
D|--------------12----------12--10--9---------12-10-9-------9---------------|
A|--------------------------------------------------------------------------|
E|--------------------------------------------------------------------------|

e|--------------------------------------------------------------------------|
B|--------------------------------------------------------------------------|
G|--------------------------------------------------------------------------|
D|--7--7--7--7--7--7--7--7--7--7--7--7--7--7--7--7--7--7--7--7--7--7--7--7--|
A|--7--7--7--7--7--7--7--7--7--7--7--7--5--5--5--5--5--5--5--5--5--5--5--5--|
E|--5--5--5--5--5--5--5--5--5--5--5--5--5--5--5--5--5--5--5--5--5--5--5--5--|
*****************************************************************************
e|--------------------------------------------------------------------------|
B|--------------------------------------------------------------------------|
G|------------------------9------12-----12--11--9--11--9--------------------|
D|----------------10--------------------------------------12--12----10------|
A|--------------------------------------------------------------------------|
E|--------------------------------------------------------------------------|

Chorus
e|--------------------------------------------------------------------------|
B|--------------------------------------------------------------------------|
G|--------------------------------------------------------------------------|
D|--5--5--5--5--5--5--5--5--5--5--5--5--7--7--7--7--7--7--7--7--7--7--7--7--|
A|--5--5--5--5--5--5--3--3--3--3--3--3--7--7--7--7--7--7--5--5--5--5--5--5--|
E|--3--3--3--3--3--3--3--3--3--3--3--3--5--5--5--5--5--5--5--5--5--5--5--5--|
*****************************************************************************
e|---------------------------------8----------------------------------------|
B|---------------8-----------------------------------10---------------------|
G|---------------------------------------------------------------------11---|
D|--10--9-----9-------9--10----10-------10--9-----9-------9--10-----9-------|
A|--------------------------------------------------------------------------|
E|--------------------------------------------------------------------------|

e|--------------------------------------------------------------------------|
B|--------------------------------------------------------------------------|
G|--------------------------------------------------------------------------|
D|--5--5--5--5--5--5--5--5--5--5--5--5--5--5--5--5--5--5--5--5--5--5--5--5--|
A|--5--5--5--5--5--5--3--3--3--3--3--3--5--5--5--5--5--5--5--5--5--5--5--5--|
E|--3--3--3--3--3--3--3--3--3--3--3--3--3--3--3--3--3--3--3--3--3--3--3--3--|
*****************************************************************************
e|--------------------------------------------------------------------------|
B|-----------------------------------------------10-------------------------|
G|--12--------------9------9----------12~-------------12~-------------------|
D|--------9--10--12-----------12--10---9~--------------9~-------------------|
A|--------------------------------------------------------------------------|
E|--------------------------------------------------------------------------|

Second Verse
e|--------------------------------------------------------------------------|
B|--------------------------------------------------------------------------|
G|--------------------------------------------------------------------------|
D|--5--5--5--5--5--5--5--5--5--5--5--5--7--7--7--7--7--7--7--7--7--7--7--7--|
A|--5--5--5--5--5--5--3--3--3--3--3--3--7--7--7--7--7--7--5--5--5--5--5--5--|
E|--3--3--3--3--3--3--3--3--3--3--3--3--5--5--5--5--5--5--5--5--5--5--5--5--|
*****************************************************************************
e|---------------------------------8----------------------------------------|
B|---------------8-----------------------------------10---------------------|
G|---------------------------------------------------------------------11---|
D|--10--9-----9-------9--10----10-------10--9-----9-------9--10-----9-------|
A|--------------------------------------------------------------------------|
E|--------------------------------------------------------------------------|

e|--------------------------------------------------------------------------|
B|--------------------------------------------------------------------------|
G|--------------------------------------------------------------------------|
D|--5--5--5--5--5--5--5--5--5--5--5--5--7--7--7--7--7--7--7--7--7--7--7--7--|
A|--5--5--5--5--5--5--3--3--3--3--3--3--7--7--7--7--7--7--5--5--5--5--5--5--|
E|--3--3--3--3--3--3--3--3--3--3--3--3--5--5--5--5--5--5--5--5--5--5--5--5--|
*****************************************************************************
e|---------------------------------8----------------------------------------|
B|---------------8-----------------------------------10---------------------|
G|---------------------------------------------------------------------11---|
D|--10--9-----9-------9--10----10-------10--9-----9-------9--10-----9-------|
A|--------------------------------------------------------------------------|
E|--------------------------------------------------------------------------|

Pre-chorus
e|--------------------------------------------------------------------------|
B|--------------------------------------------------------------------------|
G|--------------------------------------------------------------------------|
D|--9--9--9--9--9--9--9--9--9--9--9--9--9--9--9--9--9--9--9--9--9--9--9--9--|
A|--9--9--9--9--9--9--9--9--9--9--9--9--7--7--7--7--7--7--7--7--7--7--7--7--|
E|--7--7--7--7--7--7--7--7--7--7--7--7--7--7--7--7--7--7--7--7--7--7--7--7--|
*****************************************************************************
e|--------------------------------------------------------------------------|
B|--------------------------------------------------------------------------|
G|---------------------11------------------------------12-----11------------|
D|--------------12----------12--10--9---------12-10-9-------9---------------|
A|--------------------------------------------------------------------------|
E|--------------------------------------------------------------------------|

e|--------------------------------------------------------------------------|
B|--------------------------------------------------------------------------|
G|--------------------------------------------------------------------------|
D|--7--7--7--7--7--7--7--7--7--7--7--7--7--7--7--7--7--7--7--7--7--7--7--7--|
A|--7--7--7--7--7--7--7--7--7--7--7--7--5--5--5--5--5--5--5--5--5--5--5--5--|
E|--5--5--5--5--5--5--5--5--5--5--5--5--5--5--5--5--5--5--5--5--5--5--5--5--|
*****************************************************************************
e|--------------------------------------------------------------------------|
B|--------------------------------------------------------------------------|
G|------------------------9------12-----12--11--9--11--9--------------------|
D|----------------10--------------------------------------12--12----10------|
A|--------------------------------------------------------------------------|
E|--------------------------------------------------------------------------|

Second chorus
e|--------------------------------------------------------------------------|
B|--------------------------------------------------------------------------|
G|--------------------------------------------------------------------------|
D|--5--5--5--5--5--5--5--5--5--5--5--5--7--7--7--7--7--7--7--7--7--7--7--7--|
A|--5--5--5--5--5--5--3--3--3--3--3--3--7--7--7--7--7--7--5--5--5--5--5--5--|
E|--3--3--3--3--3--3--3--3--3--3--3--3--5--5--5--5--5--5--5--5--5--5--5--5--|
*****************************************************************************
e|---------------------------------8----------------------------------------|
B|---------------8-----------------------------------10---------------------|
G|---------------------------------------------------------------------11---|
D|--10--9-----9-------9--10----10-------10--9-----9-------9--10-----9-------|
A|--------------------------------------------------------------------------|
E|--------------------------------------------------------------------------|

e|--------------------------------------------------------------------------|
B|--------------------------------------------------------------------------|
G|--------------------------------------------------------------------------|
D|--5--5--5--5--5--5--5--5--5--5--5--5--5--5--5--5--5--5--5--5--5--5--5--5--|
A|--5--5--5--5--5--5--3--3--3--3--3--3--5--5--5--5--5--5--5--5--5--5--5--5--|
E|--3--3--3--3--3--3--3--3--3--3--3--3--3--3--3--3--3--3--3--3--3--3--3--3--|
*****************************************************************************
e|--------------------------------------------------------------------------|
B|-----------------------------------------------10-------------------------|
G|--12--------------9------9----------12~-------------12~-------------------|
D|--------9--10--12-----------12--10---9~--------------9~-------------------|
A|--------------------------------------------------------------------------|
E|--------------------------------------------------------------------------|

Bridge
e|--------------------------------------------------------------------------|
B|--------------------------------------------------------------------------|
G|--------------------------------------------------------------------------|
D|--5--5--5--5--5--5--5--5--5--5--5--5--5--5--5--5--5--5--5--5--5--5--5--5--|
A|--3--3--3--3--3--3--3--3--3--3--3--3--3--3--3--3--3--3--3--3--3--3--3--3--|
E|--3--3--3--3--3--3--3--3--3--3--3--3--3--3--3--3--3--3--3--3--3--3--3--3--|
*****************************************************************************
e|--------------------------------------------------------------------------|
B|--------------------------------------------------------------------------|
G|--12---------------9-------------12-------12------------------------------|
D|-----12-9-9-10-12-----9-9-10-12-----9--9-----9--9---12-9----------9-9~----|
A|---------------------------------------------------------12-10-12---------|
E|--------------------------------------------------------------------------|

e|--------------------------------------------------------------------------|
B|--------------------------------------------------------------------------|
G|--------------------------------------------------------------------------|
D|--5--5--5--5--5--5--5--5--5--5--5--5--5--5--5--5--5--5--5--5--5--5--5--5--|
A|--5--5--5--5--5--5--5--5--5--5--5--5--5--5--5--5--5--5--5--5--5--5--5--5--|
E|--3--3--3--3--3--3--3--3--3--3--3--3--3--3--3--3--3--3--3--3--3--3--3--3--|
*****************************************************************************
e|--------------------------------------------------------------------------|
B|--------------------------------------------------------------------------|
G|--------------------------------------------------------------------------|
D|-----------------------------------------9-9---------9-9-------------9----|
A|-----------------------------------10-12-----12-10-------12-10-10-12---12-|
E|--------------------------------------------------------------------------|

e|--------------------------------------------------------------------------|
B|--------------------------------------------------------------------------|
G|--------------------------------------------------------------------------|
D|--7--7--7--7--7--7--7--7--7--7--7--7--5--5--5--5--5--5--5--5--5--5--5--5~-|
A|--5--5--5--5--5--5--5--5--5--5--5--5--5--5--5--5--5--5--5--5--5--5--5--5~-|
E|--5--5--5--5--5--5--5--5--5--5--5--5--3--3--3--3--3--3--3--3--3--3--3--3~-|
*****************************************************************************
e|--------------------------------------------------------------------------|
B|--------------------------------------------------------------------------|
G|--------------------------------------------------------------------------|
D|--------------------------------12----9------------------------9----------|
A|--------------------------10-------------12--10-------------------12--10~-|
E|---------------------------------------------------12----10---------------|

Solo
e|------------------------------------------------------------------------|
B|------------------------------------------------------------------------|
G|------------------------------------------------------------------------|
D|--12~---\9---------------/14~--------12--10--12~----14--16--16---17-----|
A|--------------------------------------------------------------------17--|
E|------------------------------------------------------------------------|
***************************************************************************
e|-----------------------------------------------10-----------------------|
B|---------------------13~----------10~-------------12~-------------------|
G|-----------12~---\9-----------------------------------------------------|
D|------------------------------------------------------------------------|
A|------------------------------------------------------------------------|
E|------------------------------------------------------------------------|

e|----------------------------------------------------|
B|----------------------------------------------------|
G|--16---17-14-----16---17-14------14-14-14-14-14-14--|
D|--------------17-------------17---------------------|
A|----------------------------------------------------|
E|----------------------------------------------------|
*******************************************************
e|----------------------------------------------------|
B|---------------------------------15~----------------|
G|--16---17-14-----16---17-14-------------------------|
D|--------------17-------------17---------------------|
A|----------------------------------------------------|
E|----------------------------------------------------|

Pre-chorus
e|--------------------------------------------------------------------------|
B|--------------------------------------------------------------------------|
G|--------------------------------------------------------------------------|
D|--9--9--9--9--9--9--9--9--9--9--9--9--9--9--9--9--9--9--9--9--9--9--9--9--|
A|--9--9--9--9--9--9--9--9--9--9--9--9--7--7--7--7--7--7--7--7--7--7--7--7--|
E|--7--7--7--7--7--7--7--7--7--7--7--7--7--7--7--7--7--7--7--7--7--7--7--7--|
*****************************************************************************
e|--------------------------------------------------------------------------|
B|--------------------------------------------------------------------------|
G|---------------------11------------------------------12-----11------------|
D|--------------12----------12--10--9---------12-10-9-------9---------------|
A|--------------------------------------------------------------------------|
E|--------------------------------------------------------------------------|

e|--------------------------------------------------------------------------|
B|--------------------------------------------------------------------------|
G|--------------------------------------------------------------------------|
D|--7--7--7--7--7--7--7--7--7--7--7--7--7--7--7--7--7--7--7--7--7--7--7--7--|
A|--7--7--7--7--7--7--7--7--7--7--7--7--5--5--5--5--5--5--5--5--5--5--5--5--|
E|--5--5--5--5--5--5--5--5--5--5--5--5--5--5--5--5--5--5--5--5--5--5--5--5--|
*****************************************************************************
e|--------------------------------------------------------------------------|
B|--------------------------------------------------------------------------|
G|------------------------9------12-----12--11--9--11--9--------------------|
D|----------------10--------------------------------------12--12----10------|
A|--------------------------------------------------------------------------|
E|--------------------------------------------------------------------------|

Final chorus
e|--------------------------------------------------------------------------|
B|--------------------------------------------------------------------------|
G|--------------------------------------------------------------------------|
D|--5--5--5--5--5--5--5--5--5--5--5--5--7--7--7--7--7--7--7--7--7--7--7--7--|
A|--5--5--5--5--5--5--3--3--3--3--3--3--7--7--7--7--7--7--5--5--5--5--5--5--|
E|--3--3--3--3--3--3--3--3--3--3--3--3--5--5--5--5--5--5--5--5--5--5--5--5--|
*****************************************************************************
e|---------------------------------8----------------------------------------|
B|---------------8-----------------------------------10---------------------|
G|---------------------------------------------------------------------11---|
D|--10--9-----9-------9--10----10-------10--9-----9-------9--10-----9-------|
A|--------------------------------------------------------------------------|
E|--------------------------------------------------------------------------|

e|--------------------------------------------------------------------------|
B|--------------------------------------------------------------------------|
G|--------------------------------------------------------------------------|
D|--5--5--5--5--5--5--5--5--5--5--5--5--5--5--5--5--5--5--5--5--5--5--5--5--|
A|--5--5--5--5--5--5--3--3--3--3--3--3--5--5--5--5--5--5--5--5--5--5--5--5--|
E|--3--3--3--3--3--3--3--3--3--3--3--3--3--3--3--3--3--3--3--3--3--3--3--3--|
*****************************************************************************
e|--------------------------------------------------------------------------|
B|-----------------------------------------------10-------------------------|
G|--12--------------9------9----------12~-------------12~-------------------|
D|--------9--10--12-----------12--10---9~--------------9~-------------------|
A|--------------------------------------------------------------------------|
E|--------------------------------------------------------------------------|

Outro
e|--------------------------------------------------------------------------|
B|--------------------------------------------------------------------------|
G|--------------------------------------------------------------------------|
D|--5--5--5--5--5--5--5--5--5--5--5--5--7--7--7--7--7--7--7--7--7--7--7--7--|
A|--5--5--5--5--5--5--3--3--3--3--3--3--7--7--7--7--7--7--5--5--5--5--5--5--|
E|--3--3--3--3--3--3--3--3--3--3--3--3--5--5--5--5--5--5--5--5--5--5--5--5--|
*****************************************************************************
e|---------------------------------8----------------------------------------|
B|---------------8-----------------------------------10---------------------|
G|---------------------------------------------------------------------11---|
D|--10--9-----9-------9--10----10-------10--9-----9-------9--10-----9-------|
A|--------------------------------------------------------------------------|
E|--------------------------------------------------------------------------|

e|------------------------------------------------------------------------|
B|------------------------------------------------------------------------|
G|------------------------------------------------------------------------|
D|--5--5-5-5-5-5--5-5-5-5-5--5-5-5-5-5--5-5-5-5-5--5-5-5-5-5--5-5--7--5~--|
A|--5--5-5-5-5-5--5-5-5-5-3--3-3-3-3-3--3-3-3-3-5--5-5-5-5-5--5-5--7--5~--|
E|--3--3-3-3-3-3--3-3-3-3-3--3-3-3-3-3--3-3-3-3-3--3-3-3-3-3--3-3--5--3~--|



Tap to rate this tab
# A B C D E F G H I J K L M N O P Q R S T U V W X Y Z