Song name
# A B C D E F G H I J K L M N O P Q R S T U V W X Y Z

Weezer - Let It All Hang Out chords

Let It All Hang Out by Weezer

Album: Raditude
Tuning: Standard

email: gregush1234@msn.com

I know theres some different Guitar 2 parts during the chorus, 
but besides that the intro is played at different parts 
throughout most of the song. 

Intro:
Guitar 2
     Bend Up and then Bend Up and go back down
                ^ 
 For This Part  ^
     {               }
E|----14b15--14b15b14--13-12--13-11--12-12---|
B|----15b16--15b16b15--14-13--14-12--13-13---|
G|-------------------------------------------|
D|-------------------------------------------| x4
A|-------------------------------------------|
E|-------------------------------------------|

Guitar 1
e|----------------------------------| 
B|----------------------------------|
G|------------------5-5-5-5-5-5-5-5-|
D|--3-3-3-3-5-5-5-5-5-5-5-5-5-5-5-5-| x2
A|--3-3-3-3-5-5-5-5-3-3-3-3-3-3-3-3-|
E|--1-1-1-1-3-3-3-3-----------------| 

e|------------------| 
B|------------------|
G|------------------|
D|--3-3-3-3-5-5-5-5-| x1
A|--3-3-3-3-5-5-5-5-|
E|--1-1-1-1-3-3-3-3-| 

Verse:
e|-------------------------------------| 
B|-------------------------------------|
G|-------------5-5--------------5-5----|
D|--3-3---5-5--5-5----3-3--5-5--5-5----|
A|--3-3---5-5--3-3----3-3--5-5--3-3----|
E|--1-1---3-3---------1-1--3-3---------| 

Chorus:
e|------------------------------------------------------------------------|
B|------------------------------------------------------------------------|
G|--5-5-5-5-5-5-5-5-5-----------------------------------------------------|
D|--5-5-5-5-5-5-5-5-5--2-2-2-2-2-2-2-2--7-7-7-7-7-7-7-7--5-5-5-5-x-x-x-x--|
A|--3-3-3-3-3-3-3-3-3--2-2-2-2-2-2-2-2--7-7-7-7-7-7-7-7--5-5-5-5-x-x-x-x--|
E|---------------------0-0-0-0-0-0-0-0--5-5-5-5-5-5-5-5--3-3-3-3-x-x-x-x--|

Repeat Verse
Repeat Chorus

Bridge:
e|--------------------------------------------------|      
B|--------------------------------------------------|     
G|--5~--------------------5-------------------------|     
D|--5~---2~---7~---5~-----5-[x16]-2-------7---------|   
A|--3~---2~---7~---5~-----3-------2-[16x]-7-[x16]---|     
E|-------0~---5~---3~-------------0-------5---------|  

Repeat Chorus

End
Tap to rate this tab
# A B C D E F G H I J K L M N O P Q R S T U V W X Y Z