Song name
# A B C D E F G H I J K L M N O P Q R S T U V W X Y Z

Weezer - Unbreak My Heart tab

This is my first tab and its all from ear. I'm 100% sure its right. Great song by 
a great band! Enjoy!

Intro:
e|-9---6-------9---11---13--------13---13---14---13---11---9---9---6-------9--|
B|---------6-----------------13----------------------------------------6------|
G|----------------------------------------------------------------------------|
D|----------------------------------------------------------------------------|
A|----------------------------------------------------------------------------|
E|----------------------------------------------------------------------------|

e|--11---13-------------------------------------------------------------------|
B|------------13---11---9-----------------------------------------------------|
G|----------------------------------------------------------------------------|
D|----------------------------------------------------------------------------|
A|----------------------------------------------------------------------------|
E|----------------------------------------------------------------------------|
Tap to rate this tab
 
# A B C D E F G H I J K L M N O P Q R S T U V W X Y Z