Song name
# A B C D E F G H I J K L M N O P Q R S T U V W X Y Z

While She Sleeps - Seven Hills tab

-------------------------------------------------------------------------------
                                                 While She Sleeps - Seven Hills
-------------------------------------------------------------------------------
Tabbed by: Jkv2666 (Youtube name)
E-mail: legolas_409@yahoo.com

Tuning: Drop C

I also have a COVER of this song uploaded on youtube :D Here's a link to it ! 
http://youtu.be/e0XefhJookg

D|--------------------------------------------------|
A|--15----------15----------------------------------|
F|------15--12------15--12--14--12--12--14--12--12--|
C|--------------------------------------------------|
G|--------------------------------------------------|
C|--------------------------------------------------|


D|--------------------------13----------13----------|
A|--15----------15--------------10----------10------|
F|------15--12------15--12----------12----------12--|
C|--------------------------------------------------|
G|--------------------------------------------------|
C|--------------------------------------------------|


D|---------------------------------------------13s15--|
A|--15----------15------------------------------------|
F|------15--12------15--12--14--12--12--15s17---------|
C|----------------------------------------------------|
G|----------------------------------------------------|
C|----------------------------------------------------|


D|--------------------------13----------13----------|
A|--15----------15--------------10----------10------|
F|------15--12------15--12----------12----------12--|
C|--------------------------------------------------|
G|--------------------------------------------------|
C|--------------------------------------------------|


D|---------------------------------------------13s15--|
A|--15----------15------------------------------------|
F|------15--12------15--12--14--12--12--15s17---------|
C|----------------------------------------------------|
G|----------------------------------------------------|
C|----------------------------------------------------|


D|--------------------------13----------13---------------------------------|
A|--15----------15--------------10----------10--11s13--15--18--13----------|
F|------15--12------15--12----------12-----------------------------15--14--|
C|-------------------------------------------------------------------------|
G|-------------------------------------------------------------------------|
C|-------------------------------------------------------------------------|


D|--------------------------------------------|
A|----------20v--22v--------------------------|
F|--15--17------------22v--19v--17v--14--14v--|
C|--------------------------------------------|
G|--------------------------------------------|
C|--------------------------------------------|

The Main Riff

D|--------------------------------------------------------------------------|
A|--------------------------------------------------------------------------|
F|--------------------------------------------------------------------------|
C|--------------------------------------------------------------------------|
G|--------3-----5-5-5--------3-----5-5-5--------3-----3-3-3--------3---3-3p0|
C|--1--1-----1---------1--1-----1---------3--3-----3---------3--3----3------|
       m     m            m     m            m     m            m

D|--------------------------------------------------------------------------|
A|--------------------------------------------------------------------------|
F|--------------------------------------------------------------------------|
C|--------------------------------------------------------------------------|
G|--------3-----5-5-5--------3-----5-5-5--------3-----3-3-3--------3---3-5p0|
C|--1--1-----1---------1--1-----1---------3--3-----3---------3--3----3------|
       m     m            m     m            m     m            m

Repeat the above Riff !


D|--11--------------------------------------------------------------|
A|-----15-15-15-15-15-15-13-15-15-15-15-15-15-----------------------|
F|--------------------------------------------15-15-15-15-15-15-15--|
C|------------------------------------------------------------------|
G|------------------------------------------------------------------|
C|------------------------------------------------------------------|


D|-------------------------------------------------------------------------|
A|-------------------------------------------------------------------------|
F|--14-14-14-14-14-14-14--12-12-12-12-12-12-12s15-15-15-15-14h15p14--------|
C|------------------------------------------------------------------15s17--|
G|-------------------------------------------------------------------------|
C|-------------------------------------------------------------------------|


D|------------------------------------------|
A|------------------------------------------|
F|------------------------------------------|
C|--17-17-17-17-17-17-15-15-15-15-15h17-17--|
G|------------------------------------------|
C|------------------------------------------|

Repeat the LEAD above 3 times !



D|---------------------------------------------13s15--|
A|--15----------15------------------------------------|
F|------15--12------15--12--14--12--12--15s17---------|
C|----------------------------------------------------|
G|----------------------------------------------------|
C|----------------------------------------------------|


D|--------------------------13----------13-------------|
A|--15----------15--------------10----------10--11s13--|
F|------15--12------15--12----------12-----------------|
C|-----------------------------------------------------|
G|-----------------------------------------------------|
C|-----------------------------------------------------|


D|---------------------------------13s15--|
A|--15----------15----------10h11---------|
F|------15--12------15--12----------------|
C|----------------------------------------|
G|----------------------------------------|
C|----------------------------------------|


D|--------------------------------------------------------------------------|
A|--------------------------------------------------------------------------|
F|--------------------------------------------------------------------------|
C|--------------------------------------------------------------------------|
G|--------3-----5-5-5--------3-----5-5-5--------3-----3-3-3--------3---3-3p0|
C|--1--1-----1---------1--1-----1---------3--3-----3---------3--3----3------|
       m     m            m     m            m     m            m

D|--------------------------------------------------------------------------|
A|--------------------------------------------------------------------------|
F|--------------------------------------------------------------------------|
C|--------------------------------------------------------------------------|
G|--------3-----5-5-5--------3-----5-5-5--------3-----3-3-3--------3---3-5p0|
C|--1--1-----1---------1--1-----1---------3--3-----3---------3--3----3------|
       m     m            m     m            m     m            m

Repeat the above Riff !

D|--11--------------------------------------------------------------|
A|-----15-15-15-15-15-15-13-15-15-15-15-15-15-----------------------|
F|--------------------------------------------15-15-15-15-15-15-15--|
C|------------------------------------------------------------------|
G|------------------------------------------------------------------|
C|------------------------------------------------------------------|


D|-------------------------------------------------------------------------|
A|-------------------------------------------------------------------------|
F|--14-14-14-14-14-14-14--12-12-12-12-12-12-12s15-15-15-15-14h15p14--------|
C|------------------------------------------------------------------15s17--|
G|-------------------------------------------------------------------------|
C|-------------------------------------------------------------------------|


D|------------------------------------------|
A|------------------------------------------|
F|------------------------------------------|
C|--17-17-17-17-17-17-15-15-15-15-15h17-17--|
G|------------------------------------------|
C|------------------------------------------|

Repeat the LEAD above 3 times !

D|--------------------------------------------------------------------------|
A|--------------------------------------------------------------------------|
F|--------------------------------------------------------------------3p2---|
C|--1----3-----------------8---------------8--------------8---3h5p3p0-----3-|
G|--1----3---------8---------------8--------------8-------------------------|
C|--1----3----5--5---5-5-5---5-5-5---5-5-5---5--5---5-5-5-------------------|
                 m   m m m   m m m   m m m      m   m m m

D|--------------------------------------------------------------------------|
A|--------------------------------------------------------------------------|
F|--------------------------------------------------------------------------|
C|--1----3-----------------8---------------8--------------8---3--3--3--3--3-|
G|--1----3---------8---------------8--------------8-----------3--3--3--3--3-|
C|--1----3----5--5---5-5-5---5-5-5---5-5-5---5--5---5-5-5-----3--3--3--3--3-|
                 m   m m m   m m m   m m m      m   m m m

D|---------------------------------------------13s15--|    __
A|--15----------15------------------------------------|      |
F|------15--12------15--12--14--12--12--15s17---------|      |
C|----------------------------------------------------|      |
G|----------------------------------------------------|      |
C|----------------------------------------------------|      |
                                                             | x2
                                                             |
D|--------------------------13----------13----------|        |
A|--15----------15--------------10----------10------|        |
F|------15--12------15--12----------12----------12--|        |
C|--------------------------------------------------|        |
G|--------------------------------------------------|      __|
C|--------------------------------------------------|


D|--11--------------------------------------------------------------|
A|-----15-15-15-15-15-15-13-15-15-15-15-15-15-----------------------|
F|--------------------------------------------15-15-15-15-15-15-15--|
C|------------------------------------------------------------------|
G|------------------------------------------------------------------|
C|------------------------------------------------------------------|


D|-------------------------------------------------------------------------|
A|-------------------------------------------------------------------------|
F|--14-14-14-14-14-14-14--12-12-12-12-12-12-12s15-15-15-15-14h15p14--------|
C|------------------------------------------------------------------15s17--|
G|-------------------------------------------------------------------------|
C|-------------------------------------------------------------------------|


D|------------------------------------------|
A|------------------------------------------|
F|------------------------------------------|
C|--17-17-17-17-17-17-15-15-15-15-15h17-17--|
G|------------------------------------------|
C|------------------------------------------|

Repeat the LEAD above 3 times !

D|---------------------------------------------13s15--|
A|--15----------15------------------------------------|
F|------15--12------15--12--14--12--12--15s17---------|
C|----------------------------------------------------|
G|----------------------------------------------------|
C|----------------------------------------------------|


D|--------------------------13----------13-------------|
A|--15----------15--------------10----------10--11s13--|
F|------15--12------15--12----------12-----------------|
C|-----------------------------------------------------|
G|-----------------------------------------------------|
C|-----------------------------------------------------|


D|---------------------------------------------------|
A|--20s15-15-15s18-18-18-----------------------------|
F|-----------------------17-17-19-19-19-19-15-15p14--|
C|---------------------------------------------------|
G|---------------------------------------------------|
C|---------------------------------------------------|


D|-----------------------------------17-17-22-22-22--|
A|--20s15-15-15s18-18-18s20-20-20-20-----------------|
F|---------------------------------------------------|
C|---------------------------------------------------|
G|---------------------------------------------------|
C|---------------------------------------------------|


D|--------------------------------------------------------------------------|
A|--20s15-15-15s18-18-18----------------------------------------------------|
F|-----------------------17-17-19-19-19-19-15-15p14-15-14-------------------|
C|--------------------------------------------------------15-12h15p12----12-|
G|--------------------------------------------------------------------15----|
C|--------------------------------------------------------------------------|


D|--------------------------------------------------------------------------|
A|-20s15-15-15s18-18-18-----------------------------------------------------|
F|----------------------17-17-19-19-19-19-15-15p14-15-14--------------------|
C|-------------------------------------------------------15-12h15p12----12--|
G|-------------------------------------------------------------------15---13|
C|--------------------------------------------------------------------------|
Tap to rate this tab
# A B C D E F G H I J K L M N O P Q R S T U V W X Y Z