Song name
# A B C D E F G H I J K L M N O P Q R S T U V W X Y Z

White Stripes - Take A Whiff On Me tab

The White Stripes - Take A Whiff On Me
Live Under Blackpool Lights

Without Effects
|--------------|
|--------------|
|--9--9--9\7~--|
|--9--9--9\7~--|
|--7--7--7\5~--|
|--------------|

|----(Play 4 Times)-----|
|-----------------------|
|-----------------------|
|--2-2-9-9-8-8-8-8-7-5--|
|--2-2-9-9-8-8-8-8-7-5--|
|--0-0-7-7-6-6-6-6-5-3--|

|--12-12-12-12-10-10-10-10-9-9-9-9-8-8-8-8--|
|-------------------------------------------|
|-------------------------------------------|
|-------------------------------------------|
|-------------------------------------------|
|--------------(Play 3 Times)---------------|

|-----------------------------------------------|
|-----------------------------------------------|
|-----0-----0-------0-----0-----0-----0-----0~--|
|--2--0--2--0--2-2--0--2--0--2--0--2--0--2--0~--|
|--2--x--2--x--2-2--x--2--x--2--x--2--x--2--x~--|
|--0--3--0--3--0-0--3--0--3--0--3--0--3--0--3~--|

With Effects
|--------------|
|--------------|
|--9--9--9\7~--|
|--9--9--9\7~--|
|--7--7--7\5~--|
|--------------|

|----(Play 4 Times)-----|
|-----------------------|
|-----------------------|
|-----------------------|
|-----------------------|
|--0-0-7-7-6-6-6-6-5-3--|

|--9b~--9^-7b~--7^-5b~--5^-3b~--3^--|
|-----------------------------------|
|-----------------------------------|
|-----------------------------------|
|-----------------------------------|
|--------------(Play 3 Times)-------|

|-----------------------------------------------|
|-----------------------------------------------|
|-----------------------------------------------|
|-----------------------------------------------|
|-----------------------------------------------|
|--3--0--3--0--3-3--0--3--0--3--0--3--0--3--0~--|
Tap to rate this tab
# A B C D E F G H I J K L M N O P Q R S T U V W X Y Z