Song name
# A B C D E F G H I J K L M N O P Q R S T U V W X Y Z

White Stripes - Icky Thump tab

-------------------------------------------------------------------------------
			     Icky thump - White Strips
-------------------------------------------------------------------------------
Tabbed by:arden98
Email:krownusheroes@yahoo.com

Tuning:

Verse:
e-0--0--0--0--0--0--0---0--3-------------------------------------|
b-2--2--2--2--2--2--2---2--5-------------------------------------|
g-2--2--2--2--2--2--2---2--5-------------------------------------|
d----------------------------------------------------------------|
a----------------------------------------------------------------|
E----x--x--x---x--x-x--------------------------------------------|

Chorus:
e-o-----------------------0--3--0-----------------------------------|Repeat
b-2-----------------------2--5--2-----------------------------------|
g-2-----------5--5--4--0--2--5--2--7--5--4--7--6--------------------|
d----7--5--4--------------------------------------7-5--5------------|
a--------------------------------------------------- 5--5--2--------|
E----------------------------------------------------3--3--0--------|

End Chorus:

e----------------------------------------------------------------|
b-5--7--5--7-----------------------------------------------------|
g-7--9--7--9-----------------------------------------------------|
d-7--9--7--9-----------------------------------------------------|
a----------------------------------------------------------------|
E----------------------------------------------------------------|

First Solo:

e-------------------------------------------------------------------|
b-------------------------------------------------Repeat------------|
g--7--6-----9--8-----10--9-------12--11--12------four times---------|
d--------7--------9---------10--------------------------------------|
a-------------------------------------------------------------------|
E-------------------------------------------------------------------|

---- Second Solo: Heavy Distortion
e--12--12--12--12--12--9/--12---12p-9h-12--19b------24-------------------|
b------------------------------------------------------------------------|
g------------------------------------------------------------------------|
d-----------------------------------------------14------14--16--17-------|
a------------------------------------------------------------------------|
E------------------------------------------------------------------------|

e---------------------22b--18-------------------------------19--17----------------------|
b-----------------20------------------------15--17--15--17--------20--17----------------|
g-----------------------------------19b-15--------------------------------14--17/-9--8--|b
d---------------17----------------------------------------------------------------------|
a---------------------------------------------------------------------------------------|
E---------------------------------------------------------------------------------------|

e-----------------19--17-------------------------------------------------|
b-19--19b-19--17----------20--19--20--19--17-----------------------------|
g------------------------------------------------------------------------|
d----------------------------------------------21b-21--19--22--19--------|
a------------------------------------------------------------------------|
E------------------------------------------------------------------------|

e-14--15--17--15--14----------------------------------------------------|
b---------------------15/-17--15----------------------------------------|
g-------------------------------17--16---16--17--16--14b-14-------------|
d-----------------------------------------------------------17--14------|
a-----------------------------------------------------------------------|
E-----------------------------------------------------------------------|


************************************

| /   slide up
| \   slide down
| h   hammer-on
| p   pull-off
| ~   vibrato
| +   harmonic
| x   Mute note
| b   Bend
| pb  Pre-bend
| br  Bend release
| pbr Pre-bend release
| brb Bend release bend

************************************
Tap to rate this tab
 
# A B C D E F G H I J K L M N O P Q R S T U V W X Y Z