Guitaretab - guitar tabs
Song name
# A B C D E F G H I J K L M N O P Q R S T U V W X Y Z

White Stripes - Icky Thump tab

Icky Thump 
By: The White Stripes
Tabbed By: PinkxFloydx123

1. Icky Thump
2. You Dont Know What Love Is(You Just Do As Your Told)
3. 300 MPH Torrential Outpour Blues
4. Conquest
5. Bone Broke
6. Prickly Thorn but Sweetly Worn
7. St. Andrew
8. Little Cream Soda
9. Rag and Bone
10. Im Slowly Turning into you
11. A Martyr For My Love For You
12. Catch Hell Blues
13. Effect and Cause
14. Baby Brother

1.Icky Thump
----------------------------------------------------------------------------
Main Riff.
e|---------------------------------|
B|---------------------------------|
G|--------------------9--7---9-----|
D|--------------------9--7---9-----|   x8
A|2--2--2--2--2--2----7--5---7-----|
E|0--0--0--0--0--0-----------------|
  x  x  x  x  x  x  


"Chorus" riff
e|-----------------------------------------------------------------------|
B|-----------------------------------------------------------------------|
G|-----------------------------------------------------------------------|
D|/7--5--4--0-------------2--5--2----------------------------------------|
A|-------------5--4--0----2--5--2----------------------------------------|
E|------------------------0--3--0----------------------------------------|

e|-----------------------------------------------------------------------|
B|-----------------------------------------------------------------------|
G|------------/7--6------------------------------------------------------|
D|/7--5--4--0--------7----2--5--2----------------------------------------|
A|------------------------2--5--2----------------------------------------|
E|------------------------0--3--0----------------------------------------|

e|-----------------------------------------------------------------------|
B|-----------------------------------------------------------------------|
G|-----------------------------------------------------------------------|
D|/7--5--4--0-------------2--5--2----------------------------------------|
A|-------------5--4--0----2--5--2----------------------------------------|
E|------------------------0--3--0----------------------------------------|

e|-----------------------------------------------------------------------|
B|-----------------------------------------------------------------------|
G|--------------7--9--7--9-----------------------------------------------|
D|/7--5--4--0---7--9--7--9-----------------------------------------------|
A|--------------5--7--5--7-----------------------------------------------|
E|--------------------------(0)------------------------------------------|



 Interlude 
e|-----------------------------------------------------------------------|
B|-----------------------------------------------------------------------|
G|-----------------------------------------------------------------------|
D|12--11--------14--13--------15--14--------17--16-----------------------|
A|--------12------------14------------15------------17-------------------|
E|-----------------------------------------------------------------------|


2. You Dont Know What Love Is(You Just Do As Your Told)
----------------------------------------------------------------------------
Guitar 1 and 2 play simultaneously. Guitar 2's lead riffs could be played further up the 
but by
playing them low they can be integrated into the chord progression as one guitar part.


INTRO: Organ follows guitar.

... Three, four,

Guitar 1:
   A5              E5              D5              A5
e|---------------------------------------------------------------------|
B|---------------------------------2-----------------------------------|
G|-2-------------------------------2---------------2----2--------------|
D|-2---------------2----2----------0---------------2----2--------------|
A|-0---------------2----2--------------------------0----0--------------|
E|-----------------0----0----------------------------------------------|

Guitar 2:
e|-------------------------0----------3---3p2--------------2-----------|
B|-----2---2--0-----------------------3---3------------0h2---2p0-------|
G|-----2---2--0-------0h1----------------------------------------2(~)--|
D|---------------------------------------------------------------------|
A|---------------------------------------------------------------------|
E|---------------------------------------------------------------------|

Guitar 1:
   A5              E5              D5              A5
e|---------------------------------------------------------------------|
B|---------------------------------2-----------------------------------|
G|-2-------------------------------2---------------2----2--------------|
D|-2---------------2----2----------0---------------2----2--------------|
A|-0---------------2----2--------------------------0----0--------------|
E|-----------------0----0----------------------------------------------|

Guitar 2:
e|-------------------------0----------3---3p2--------------2-----------|
B|-----2---2--0-----------------------3---3------------0h2---2p0-------|
G|-----2---2--0-------0h1----------------------------------------2(~)--|
D|---------------------------------------------------------------------|
A|---------------------------------------------------------------------|
E|---------------------------------------------------------------------|

Guitar 1:
   A5              E5              D5              A5
e|---------------------------------------------------------------------|
B|---------------------------------2-----------------------------------|
G|-2-------------------------------2---------------2----2--------------|
D|-2---------------2----2----------0---------------2----2--------------|
A|-0---------------2----2--------------------------0----0--------------|
E|-----------------0----0----------------------------------------------|

Guitar 2:
e|---------2-----------------0---------3---3p2--------------2-----------|
B|-----0h2---2p0-----------------------3---3------------0h2---2p0-------|
G|---------------2--0h1-------------------------------------------2(~)--|
D|-----------------------2----------------------------------------------|
A|----------------------------------------------------------------------|
E|----------------------------------------------------------------------|

Guitar 1:
   A5              E5              D5              A5 (let ring)
e|----------------------------------------------------|
B|---------------------------------2------------------|
G|-2-------------------------------2---------------2--|
D|-2---------------2----2----------0---------------2--|
A|-0---------------2----2--------------------------0--|
E|-----------------0----0-----------------------------|

Guitar 2:
e|-------------------------0----------3---3p2---------|
B|-----2---2--0-----------------------3---3-----------|
G|-----2---2--0-------0h1-----------------------------|
D|----------------------------------------------------|
A|----------------------------------------------------|
E|----------------------------------------------------|


RIFF:

Guitar 1:
   A
e|------0-----------------0----------|
B|-0h2----2p0--------0h2-----2p0-----|
G|--------------2-----------------2--|
D|-----------------------------------|
A|-----------------------------------|
E|-----------------------------------|

Guitar 2:
e|-----------------------------------|
B|------5-----------------5----------|
G|-4h6-----6p4-------4h6-----6p4-----|
D|--------------7-----------------7--|
A|-----------------------------------|
E|-----------------------------------|


VERSE 1:
   A5 N.C.            E5   E5 N.C.         D5 N.C.        A5 A5 N.C.
In some respects I suspect you've got a respectable side
     A5 N.C.               E5 E5 N.C.    D5 N.C.          E5 E5 N.C.
When pushed and pulled and pressured you seldom run and hide
             A5 N.C.        E5  E5 N.C.      C5       G5      A5
But it's for someone else's benefit, not for what you want to do
                     E5                        D5                 A5
Until I realize that you've realized I'm gonna say these words to you

ORGAN:
e|--------------------|
B|-3---3--2--0--2-----|
G|-----------------2--|
D|--------------------|
A|--------------------|
E|--------------------|

CHORUS:
      A5 N.C.             E5   E5 N.C. D5 N.C.        A5 A5 N.C.
Yeah, you don't know what love is, you do as you're told
A5 N.C.            E5 E5 N.C.                D5 N.C.   E5 E5 N.C.
Just as a child of ten might act, but you're far too old
           A5 N.C.     E5  E5 N.C.     C5      G5    A5
You're not hopeless or helpless, and I hate to sound cold
    E5                  G5
But you don't know what love is,

e|----------------------------|
B|----------------------------|
G|-----------------0--0h2--0--|
D|--------0--0h2--------------|
A|-0h2------------------------|
E|----------------------------|

you just do as you're told


INTRO


BREAK 1:

Hey!

Played 2x:
E5 E5 E5   G5 G5 G5   A5  A5         E5* E5* E5*   C5 C5 C5   A5   A5

Come on!

E5 E5 E5   G5 G5 G5   A5  A5         E5* E5* E5*   C5 C5 C5   A5   A5
E5 E5 E5
E5 E5 E5   G5 G5 G5   A5  A5         E5* E5* E5*   C5 C5 C5   A5   A5 (let ring)


RIFF


VERSE 2:
I can see your man can't help but win any problems when they arise
But in his mind there can be no sin if you never criticize
You just keep on repeatin' all those empty "I love you"'s
Until you see you deserve better I'm gonna lay right into to you

   8^                |/\/\/\/|
e|---------------------------|
B|-3---3--2--0--2------------|
G|-----------------2---------|
D|---------------------------|
A|---------------------------|
E|---------------------------|


CHORUS:
      A5 N.C.             E5   E5 N.C. D5 N.C.        A5 A5 N.C.
Yeah, you don't know what love is, you do as you're told
A5 N.C.            E5 E5 N.C.                D5 N.C.   E5 E5 N.C.
Just as a child of ten might act, but you're far too old
           A5 N.C.     E5  E5 N.C.     C5      G5    A5
You're not hopeless or helpless, and I hate to sound cold
    E5                  G5          E5                  G5
But you don't know what love is, no you don't know what love is
    E5                  G5      G5 N.C.
No, you don't know what love is,        you just do as you're told

BREAK 2:

Guitar 1:
   A5              E5              D5              A5
e|---------------------------------------------------------|
B|---------------------------------2-----------------------|
G|-2-------------------------------2---------------2----2--|
D|-2---------------2----2----------0---------------2----2--|
A|-0---------------2----2--------------------------0----0--|
E|-----------------0----0----------------------------------|

Guitar 2:
   8^^
e|---------------------------------------------------------|
B|----5--5p3-2--3--3----5~------------3-2-3---5------------|
G|---------------------------------------------------------|
D|---------------------------------------------------------|
A|---------------------------------------------------------|
E|---------------------------------------------------------|
                                              Yeah, do as you're told

Guitar 1:
   A5              E5              D5              A5
e|-----------------------------------------------------------------|
B|---------------------------------2-------------------------------|
G|-2-------------------------------2---------------2----2----------|
D|-2---------------2----2----------0---------------2----2----------|
A|-0---------------2----2--------------------------0----0----------|
E|-----------------0----0------------------------------------------|

Guitar 2:
   8^^
e|-----------------------------------------------------------------|
B|----5--5p3-2--3--3b5r3-----3-2-3-3b5r3--2-3-5-3-2b5r3------------|
G|-----------------------2~------------------------------2--4--2~--|
D|-----------------------------------------------------------------|
A|-----------------------------------------------------------------|
E|-----------------------------------------------------------------|
                                                                 Yeah

Guitar 1:
   A5              E5              D5              A5
e|------------------------------------------------------------------|
B|---------------------------------2--------------------------------|
G|-2-------------------------------2---------------2----2-----------|
D|-2---------------2----2----------0---------------2----2-----------|
A|-0---------------2----2--------------------------0----0-----------|
E|-----------------0----0-------------------------------------------|

Guitar 2:
   8^^
e|---5b7--5-3------3----5-------7--7-8-7-5-5-7p5-3-3----5--/7---3~--|
B|------------5--5--------------------------------------------------|
G|------------------------------------------------------------------|
D|------------------------------------------------------------------|
A|------------------------------------------------------------------|
E|------------------------------------------------------------------|

Guitar 1:
   A5              E5              D5              A5
e|------------------------------------------------------------|
B|---------------------------------2--------------------------|
G|-2-------------------------------2---------------2----2-----|
D|-2---------------2----2----------0---------------2----2-----|
A|-0---------------2----2--------------------------0----0-----|
E|-----------------0----0-------------------------------------|

Guitar 2:
   8^^
e|----7--5----------------------------------------------------|
B|----------8--5---7h8--7--3(\2)---0-2-3--5~--5\0--0h1p0------|
G|--------------------------------------------------------2~--|
D|------------------------------------------------------------|
A|------------------------------------------------------------|
E|------------------------------------------------------------|

Guitar 1:
   A5              E5              D5              A5
e|------------------------------------------------------------|
B|---------------------------------2--------------------------|
G|-2-------------------------------2---------------2----2-----|
D|-2---------------2----2----------0---------------2----2-----|
A|-0---------------2----2--------------------------0----0-----|
E|-----------------0----0-------------------------------------|

Guitar 2:
   8^^
e|----7h8p7--------7h8p7h8p7----------------------------------|
B|----------10--10-----------10----8b10r8--5(\)----3-5--7\5~--|
G|-------------------------------x----------------------------|
D|-----------------------------x------------------------------|
A|------------------------------------------------------------|
E|------------------------------------------------------------|

Guitar 1:
   A5              E5              D5              A5 (let ring)
e|--------------------------------------------------------|
B|---------------------------------2----------------------|
G|-2-------------------------------2---------------2------|
D|-2---------------2----2----------0---------------2------|
A|-0---------------2----2--------------------------0------|
E|-----------------0----0---------------------------------|

Guitar 2:
   8^^
e|----------------------------------5b7r5-3---------------|
B|----------3--5-------------3-3-5----------5-3-2h3p2-----|
G|-----4b6--------------4b6---------------------------2~--|
D|--------------------------------------------------------|
A|--------------------------------------------------------|
E|--------------------------------------------------------|


   A
e|------0-----------------0----------|
B|-0h2----2p0--------0h2-----2p0-----|
G|--------------2-----------------2--|
D|-----------------------------------|
A|-----------------------------------|
E|-----------------------------------|
  One,    two,     three,    four


A5

3. 300 MPH Torrential Outpour Blues
----------------------------------------------------------------------------

|-----|--------------|----------------------|
|-----|--------------|----------------------|
|-----|--------------|----------------------|
|-----|--6-6-6-4-----|--6-6-6-4--/7-6-------|
|-----|--7-7-7-5-----|--7-7-7-5-------7-----|
|--0--|-----------0--|-------------------0--|


|---------------------|----------------|--------------|
|---------------------|------7-5--5-7--|--------------|
|---------------------|--5/7------5-7--|--------------|
|--6-6-6-6-6-6-6-6-4--|----------------|----6-6-6--7--|
|--7-7-7-7-7-7-7-7-5--|----------------|----7-7-7-----|
|---------------------|----------------|--0-----------|


|-------------|------------|---------------|
|------10--9--|----10-9----|--7-7-7-5------|
|--7/9--------|--9------9--|--7-7-7-5------|
|-------------|------------|---------------|
|-------------|------------|---------------|
|-------------|------------|---------------|

Rhythm 
|-------------------|
|-------------------|
|-------------------|
|---------7-7-7-----|
|--3-3-3--5-5-5-----|
|--0-0-0------------|


|--17b(19)r-17-17--15-15-17-15-17-17-15----15--|
|---------------------------------------17-----|
|----------------------------------------------|
|----------------------------------------------|
|----------------------------------------------|
|----------------------------------------------|

|--------------------------------------------------|
|-b17r-b17r--15-17-15b17r--15-17p15-1517p15------|
|-b17r-b17r-----------b17r--------------------17---|
|--------------------------------------------------|
|--------------------------------------------------|
|--------------------------------------------------|


|--15p12--12-12-12--12-15---12--12-12-1215b(16)-- |
|--------------------------------------------------|
|--------------------------------------------------|
|--------------------------------------------------|
|--------------------------------------------------|
|--------------------------------------------------|


|-------------------|
|-----0-3-3--5------| 
|--12---2-2--5------|
|-------------------|
|-------------------|
|-------------------|


|--17b-r-17-17-17--17-20b(23)-17-20b(23)--17-20-17----------|
|-----------------------------------------------------------|
|-----------------------------------------------------------|
|-----------------------------------------------------------|
|-----------------------------------------------------------|
|-----------------------------------------------------------|


4. Conquest
----------------------------------------------------------------------------
Intro (with horn):

e|---3--------------------------------------------------|
B|--3---3643-43-----------------------------------------|
G|----------5--3----------------------------------------|
D|--------------5------6-6-5------6-6-5------6-6-5------|
A|-------------(5)-----6-6-5------6-6-5------6-6-5------|
E|-------------(3)-----4-4-3------4-4-3------4-4-3------|


Verse:

e|----------------------------------------------------------------------------|
B|----------------------------------------------------------------------------|
G|----------------------------------------------------------------------------|
D|--5--5--5-5-5--6--6--6-6-6------5--5--5-5-5--6--6--6-6-8-6-5--5--6-6-8-6-5--|
A|--5--5--5-5-5--6--6--6-6-6------5--5--5-5-5--6--6--6-6-8-6-5--5--6-6-8-6-5--|
E|--3--3--3-3-3--4--4--4-4-4-(2x)-3--3--3-3-3--4--4--4-4-6-4-3--3--4-4-6-4-3--|


Chorus:

e|-------------------------------------------------------------------|
B|-------------------------------------------------------------------|
G|-----------------------------------------0----------0----------0---|
D|--------0----------0----------0--------1---1------1---1------1---1-|
A|------1---1------1---1------1---1--3----------3----------3---------|
E|--3----------3----------3------------------------------------------|

e|----------------------------------|
B|----------------------------------|
G|-------------------------7-7-7-7--|
D|--7----------------------7-7-7-7--|
A|--7----------------------5-5-5-5--|
E|--5-------------------------------|


Bridge:

e|------------------------------------------------|
B|------------------------------------------------|
G|------------------------------------------------|
D|--5--5--5-5-5--6---------------5--5--6-6-8-6-5--|
A|--5--5--5-5-5--6---------------5--5--6-6-8-6-5--|
E|--3--3--3-3-3--4----------(3x)-3--3--4-4-6-4-3--|


5. Bone Broke
----------------------------------------------------------------------------

Verse:
e|--------------------------------------------------------------------------
B|--------------------------------------------------------------------------
G|------77-77-77------------------------------------------------------------
D|-7-9--77-77-77-(x6)----2-2-2--5-5-5---------------------------------------
A|-7-9--55-55-55---------2-2-2--5-5-5---------------------------------------
E|-5-7-------------------0-0-0--3-3-3---------------------------------------

Play the verse 3 times

Chorus:
e|--------------------------------------------------------------------------
B|--------------------------------------------------------------------------
G|--------------------------------------------------------------------------
D|-9-9-99999-2-7-7-77777-2------5-5-55555-----2-4-4-44444-------------------
A|-9-9-99999-2-7-7-77777-2(x3)--5-5-55555(x2)-2-4-4-44444-------------------
E|-7-7-77777-0-5-5-55555-0------3-3-33333-----0-2-2-22222-------------------

play the first group of c's 2 times before starting the chorus

Solo 1:
e|-10-12-14-12(x2)-10-12-14-12-10-10-10-14-14^-14^--------------------------
B|--------------------------------------------------------------------------
G|--------------------------------------------------------------------------
D|--------------------------------------------------------------------------
A|--------------------------------------------------------------------------
E|--------------------------------------------------------------------------

Solo 2:
e|-10-12-12-14-14^-12-10-10-10-12-10-14^------------------------------------
B|--------------------------------------------------------------------------
G|--------------------------------------------------------------------------
D|--------------------------------------------------------------------------
A|--------------------------------------------------------------------------
E|--------------------------------------------------------------------------

6. Prickly Thorn but Sweetly Worn
----------------------------------------------------------------------------

Main riff

e|---------2--22--2--2--3--3--2--2----1--11--1--1--0--1--0------------|
B|---------3--33--3--3--3--3--3--3----1--11--1--1--1--1--1--3---------|
G|--------------------------------------------------------------------|
D|--------------------------------------------------------------------|
A|--------------------------------------------------------------------|
E|--------------------------------------------------------------------|

e|------------------------------------2--22--2--2--3--3--2--2---------|
B|---------1--11--1--1--1--1--1--1----3--33--3--3--3--3--3--3---------|
G|---------0--00--0--0--0--0--0--0------------------------------------|
D|--------------------------------------------------------------------|
A|--------------------------------------------------------------------|
E|--------------------------------------------------------------------|

The its just bagpipes so just do this Main Riff


7. St. Andrew
----------------------------------------------------------------------------

Who Knows

8. Little Cream Soda
----------------------------------------------------------------------------

Intro
e|--0-0-0--------|   x8
B|--0-0-0--------|
G|--2-2-2--5-4---|
D|--2-2-2--5-4---|
A|--1-1-1--3-2---|
E|--0-0-0--0-0---|

e|--------8-7-------------------8-7--------7b-------------------------------|
B|-------------------8-5-------------------8b-------------------------------|
G|--------------------------------------------------------------------------|
D|--2-2-2------2-2-2------2-2-2------2-2-2----------------------------------|
A|--2-2-2------2-2-2------2-2-2------2-2-2----------------------------------|
E|--0-0-0------0-0-0------0-0-0------0-0-0----------------------------------|

e|--------8-7-------------------8-7--------7-7b-----------------------------|
B|-------------------8-5-------------------8-8b-----------------------------|
G|--------------------------------------------------------------------------|
D|--2-2-2------2-2-2------2-2-2------2-2-2----------------------------------|
A|--2-2-2------2-2-2------2-2-2------2-2-2----------------------------------|
E|--0-0-0------0-0-0------0-0-0------0-0-0----------------------------------|

e|--------8h10p8p0--------7h8p7p0----------------8h10p8p0--------7-7b-------|
B|--------------------------------7h8p7p0------------------------8-8b-------|
G|--------------------------------------------------------------------------|
D|--2-2-2-----------2-2-2------------------2-2-2-----------2-2-2------------|
A|--2-2-2-----------2-2-2------------------2-2-2-----------2-2-2------------|
E|--0-0-0-----------0-0-0------------------0-0-0-----------0-0-0------------|

e|--------8h10p8p0--------7h8p7p0----------------7h8p7p0----------------7-7--|b
B|--------------------------------7h8p7p0----------------7h8p7p0--------8-8--|b
G|---------------------------------------------------------------------------|
D|--2-2-2-----------2-2-2------------------2-2-2------------------2-2-2------|
A|--2-2-2-----------2-2-2------------------2-2-2------------------2-2-2------|
E|--0-0-0-----------0-0-0------------------0-0-0------------------0-0-0------|

e|--0-0-0--------|x4
B|--0-0-0--------|
G|--2-2-2--5-4---|
D|--2-2-2--5-4---|
A|--1-1-1--3-2---|
E|--0-0-0--0-0---|

Verse 1.
e|------------------------|x8
B|------------------------|
G|------------------------|
D|------------------------|
A|----3-2~----------------|
E|--0------0-3-3-0-3-3b---|

e|--------8-7-------------------8-7--------7-7b-----------------------------|
B|-------------------8-5-------------------8-8b-----------------------------|
G|--------------------------------------------------------------------------|
D|--2-2-2------2-2-2------2-2-2------2-2-2----------------------------------|
A|--2-2-2------2-2-2------2-2-2------2-2-2----------------------------------|
E|--0-0-0------0-0-0------0-0-0------0-0-0----------------------------------|

e|--------8-7-------------------8-7--------7-7b-----------------------------|
B|-------------------8-5-------------------8-8b-----------------------------|
G|--------------------------------------------------------------------------|
D|--2-2-2------2-2-2------2-2-2------2-2-2----------------------------------|
A|--2-2-2------2-2-2------2-2-2------2-2-2----------------------------------|
E|--0-0-0------0-0-0------0-0-0------0-0-0----------------------------------|

e|--------8h10p8p0--------7h8p7p0----------------8h10p8p0--------7-7b-------|
B|--------------------------------7h8p7p0------------------------8-8b-------|
G|--------------------------------------------------------------------------|
D|--2-2-2-----------2-2-2------------------2-2-2-----------2-2-2------------|
A|--2-2-2-----------2-2-2------------------2-2-2-----------2-2-2------------|
E|--0-0-0-----------0-0-0------------------0-0-0-----------0-0-0------------|

e|--------8h10p8p0--------7h8p7p0----------------8h10p8p0-------------------|
B|--------------------------------7h8p7p0-----------------------------------|
G|--------------------------------------------------------------------------|
D|--2-2-2-----------2-2-2------------------2-2-2-----------2-2-2------------|
A|--2-2-2-----------2-2-2------------------2-2-2-----------2-2-2------------|
E|--0-0-0-----------0-0-0------------------0-0-0-----------0-0-0------------|

e|--0-0-0--------|x4
B|--0-0-0--------|
G|--2-2-2--5-4---|
D|--2-2-2--5-4---|
A|--1-1-1--3-2---|
E|--0-0-0--0-0---|

Verse 2.
e|------------------------|x4
B|------------------------|
G|------------------------|
D|------------------------|
A|----3-2~----------------|
E|--0------0-3-3-0-3-3b---|

e|-----------------------------------------------------|
B|-----------------------------------------------------|
G|-----------------------------------------------------|
D|--2-2-2-2---2-2-2-2---2-2-2-2---2-2-2-2---2-2-2-2----|
A|--2-2-2-2---2-2-2-2---2-2-2-2---2-2-2-2---2-2-2-2----|
E|--0-0-0-0-3-0-0-0-0-3-0-0-0-0-3-0-0-0-0-3-0-0-0-0-3--|
<---------------------palm muted-----------------------|

e|-------------------------------|
B|-------------------------------|
G|-------------------------------|
D|2-2-2-2---2-2-2-2---2-2-2-2----|
A|2-2-2-2---2-2-2-2---2-2-2-2----|
E|0-0-0-0-3-0-0-0-0-3-0-0-0-0----|
<----------palm muted------------|

e|------0---|x9
B|------0---|
G|--5-4-1---|
D|--5-4-2---|
A|--3-2-2---|
E|--0-0-0---|

e|--------8-7-------------------8-7--------7b-------------------------------|
B|-------------------8-5-------------------8b-------------------------------|
G|--------------------------------------------------------------------------|
D|--2-2-2------2-2-2------2-2-2------2-2-2----------------------------------|
A|--2-2-2------2-2-2------2-2-2------2-2-2----------------------------------|
E|--0-0-0------0-0-0------0-0-0------0-0-0----------------------------------|

e|--------8-7-------------------8-7-----------------------------------------|
B|-------------------8-5--------------------12/-----------------------------|
G|--------------------------------------------------------------------------|
D|--2-2-2------2-2-2------2-2-2------2-2-2----------------------------------|
A|--2-2-2------2-2-2------2-2-2------2-2-2----------------------------------|
E|--0-0-0------0-0-0------0-0-0------0-0-0----------------------------------|

e|--------8h10p8p0--------7h8p7p0----------------8h10p8p0-------------------|
B|--------------------------------7h8p7p0-------------------------8~--------|
G|--------------------------------------------------------------------------|
D|--2-2-2-----------2-2-2------------------2-2-2-----------2-2-2------------|
A|--2-2-2-----------2-2-2------------------2-2-2-----------2-2-2------------|
E|--0-0-0-----------0-0-0------------------0-0-0-----------0-0-0------------|

e|--------8h10p8p0--------7h8p7p0----------------7h8p7p0--------------------|
B|--------------------------------7h8p7p0----------------7h8p7p0------------|
G|--------------------------------------------------------------------------|
D|--2-2-2-----------2-2-2------------------2-2-2------------------2-2-2-----|
A|--2-2-2-----------2-2-2------------------2-2-2------------------2-2-2-----|
E|--0-0-0-----------0-0-0------------------0-0-0------------------0-0-0-----|

e|-------------------------0------------------------------------------------|
B|--------7h8p7p0----------0------------------------------------------------|
G|----------------7h8p7p0--1------------------------------------------------|
D|--2-2-2------------------1------------------------------------------------|
A|--2-2-2------------------2------------------------------------------------|
E|--0-0-0------------------0------------------------------------------------|

Outro
e|------0---|x7
B|------0---|
G|--5-4-1---|
D|--5-4-2---|
A|--3-2-2---|
E|--0-0-0---|


9. Rag and Bone
----------------------------------------------------------------------------

Intro Riff
[ Tab from: http://www.guitaretab.com/w/white-stripes/88770.html ]
E |----------------------------------------------------------------|
B |----------------------------------------------------------------|
G |----------------------------------------------------------------|
D |----------------------------------------------------------------|
A |--------------3-5b--------------7-5b-----------------3-5b-------|
E |--5-5-5-5-55--------5-5-5-5-55--------5-5-5-5-3-5-3-------------|

E |----------------------------------------------------------------|
B |----------------------------------------------------------------|
G |----------------------------------------------------------------|
D |----------------------------------------------------------------|
A |----7-5b-----7-5b-----7-5b--55-5/7\3-3--------------------------|
E |-5pm-----5pm------5pm-------------------------------------------|

E |----------------------------------------------------------------|
B |----------------------------------------------------------------|
G |----------------------------------------------------------------|
D |----------------------------------------------------------------|
A |--------------3-5b----------------7-5b-----------------3-5b-----|
E |--5-5-5-5-55--------5-5-5-3-5-3-5--------5-5-5-5-3-5-3----------|

E |----------------------------------------------------------------|
B |----------------------------------------------------------------|
G |----------------------------------------------------------------|
D |----------------------------------------------------------------|
A |----7-5b-----7-5b-----7-5b--55-5/7\3-3--------------------------|
E |-5pm-----5pm------5pm-------------------------------------------|




Play a little harder -

E |----------------------------------------------------------------|
B |----------------------------------------------------------------|
G |----------------------------------------------------------------|
D |----------------------------------------------------------------|
A |--------------3-5b----------------7-5b-----------------3-5b-----|
E |--5-5-5-5-55--------5-5-5-3-5-3-5--------5-5-5-5-3-5-3----------|

E |----------------------------------------------------------------|
B |----------------------------------------------------------------|
G |----------------------------------------------------------------|
D |----------------------------------------------------------------|
A |----7-5b-----7-5b-----7-5b--55-5/7\3-3--------------------------|
E |-5pm-----5pm------5pm-------------------------------------------|

E |----------------------------------------------------------------|
B |----------------------------------------------------------------|
G |----------------------------------------------------------------|
D |----------------------------------------------------------------|
A |--------------3-5b----------------7-5b-----------------3-5b-----|
E |--5-5-5-5-55--------5-5-5-3-5-3-5--------5-5-5-5-3-5-3----------|

E |----------------------------------------------------------------|
B |----------------------------------------------------------------|
G |----------------------------------------------------------------|
D |----------------------------------------------------------------|
A |----7-5b-----7-5b-----7-5b--55-5/7\3-3--------------------------|
E |-5pm-----5pm------5pm-------------------------------------------|




Chorus x2 - Heavy Distortion

E |----------------------------------------------------------------|
B |----------------------------------------------------------------|
G |--------------5-7--------------------9-7------------------------|
D |--7-7-7-7-7-7-5-7------7-7-7-7-5-7-7-9-7------------------------|
A |--7-7-7-7-7-7-3-5------7-7-7-7-5-7-7-7-5------------------------|
E |--5-5-5-5-5-5----------5-5-5-5-3-5-5----------------------------|

E |----------------------------------------------------------------|
B |----------------------------------------------------------------|
G |--------------5-7------9-7-9-7-9-7--7-7-7--9-9--5-5-------------|
D |--7-7-7-7-7-7-5-7------9-7-9-7-9-7--7-7-7--9-9--5-5-------------|
A |--7-7-7-7-7-7-3-5------7-5-7-5-7-5--5-5-5--7-7--3-3-------------|
E |--5-5-5-5-5-5---------------------------------------------------|




Bridge x1

E |----------------------------------------------------------------|
B |----------------------------------------------------------------|
G |-----------7-7-7--9-9--5-5-----------7-7-7--9-9--5-5------------|
D |--7-7------7-7-7--9-9--5-5--5-5------7-7-7--9-9--5-5--7-7-------|
A |--7-7------5-5-5--7-7--3-3--5-5------5-5-5--7-7--3-3--7-7-------|
E |--5-5-----------------------3-3-----------------------5-5-------|

E |----------------------------------------------------------------|
B |----------------------------------------------------------------|
G |--7-7-7--9-9--5-5-----------7-7-7--9-9--5-5--7-7----------------|
D |--7-7-7--9-9--5-5--5-5------7-7-7--9-9--5-5--7-7--7-------------|
A |--5-5-5--7-7--3-3--5-5------5-5-5--7-7--3-3--5-5--7-------------|
E |-------------------3-3----------------------------5-------------|




Intro Riff Again

E |----------------------------------------------------------------|
B |----------------------------------------------------------------|
G |----------------------------------------------------------------|
D |----------------------------------------------------------------|
A |--------------3-5b--------------7-5b-----------------3-5b-------|
E |--5-5-5-5-55--------5-5-5-5-55--------5-5-5-5-3-5-3-------------|

E |----------------------------------------------------------------|
B |----------------------------------------------------------------|
G |----------------------------------------------------------------|
D |----------------------------------------------------------------|
A |----7-5b-----7-5b-----7-5b--55-5/7\3-3--------------------------|
E |-5pm-----5pm------5pm-------------------------------------------|

E |----------------------------------------------------------------|
B |----------------------------------------------------------------|
G |----------------------------------------------------------------|
D |----------------------------------------------------------------|
A |--------------3-5b----------------7-5b-----------------3-5b-----|
E |--5-5-5-5-55--------5-5-5-3-5-3-5--------5-5-5-5-3-5-3----------|

E |----------------------------------------------------------------|
B |----------------------------------------------------------------|
G |----------------------------------------------------------------|
D |----------------------------------------------------------------|
A |----7-5b-----7-5b-----7-5b--55-5/7\3-3--------------------------|
E |-5pm-----5pm------5pm-------------------------------------------|


E |----------------------------------------------------------------|
B |----------------------------------------------------------------|
G |----------------------------------------------------------------|
D |----------------------------------------------------------------|
A |--------------3-5b----------------7-5b-----------------3-5b-----|
E |--5-5-5-5-55--------5-5-5-3-5-3-5--------5-5-5-5-3-5-3----------|

E |----------------------------------------------------------------|
B |----------------------------------------------------------------|
G |----------------------------------------------------------------|
D |----------------------------------------------------------------|
A |----7-5b-----7-5b-----7-5b--55-5/7\3-3--------------------------|
E |-5pm-----5pm------5pm-------------------------------------------|

E |----------------------------------------------------------------|
B |----------------------------------------------------------------|
G |----------------------------------------------------------------|
D |----------------------------------------------------------------|
A |--------------3-5b----------------7-5b-----------------3-5b-----|
E |--5-5-5-5-55--------5-5-5-3-5-3-5--------5-5-5-5-3-5-3----------|

E |----------------------------------------------------------------|
B |----------------------------------------------------------------|
G |----------------------------------------------------------------|
D |----------------------------------------------------------------|
A |----7-5b-----7-5b-----7-5b--55-5/7\3-3--------------------------|
E |-5pm-----5pm------5pm-------------------------------------------|




Chorus x2

E |----------------------------------------------------------------|
B |----------------------------------------------------------------|
G |--------------5-7--------------------9-7------------------------|
D |--7-7-7-7-7-7-5-7------7-7-7-7-5-7-7-9-7------------------------|
A |--7-7-7-7-7-7-3-5------7-7-7-7-5-7-7-7-5------------------------|
E |--5-5-5-5-5-5----------5-5-5-5-3-5-5----------------------------|

E |----------------------------------------------------------------|
B |----------------------------------------------------------------|
G |--------------5-7------9-7-9-7-9-7--7-7-7--9-9--5-5-------------|
D |--7-7-7-7-7-7-5-7------9-7-9-7-9-7--7-7-7--9-9--5-5-------------|
A |--7-7-7-7-7-7-3-5------7-5-7-5-7-5--5-5-5--7-7--3-3-------------|
E |--5-5-5-5-5-5---------------------------------------------------|




Bridge x1

E |----------------------------------------------------------------|
B |----------------------------------------------------------------|
G |-----------7-7-7--9-9--5-5-----------7-7-7--9-9--5-5------------|
D |--7-7------7-7-7--9-9--5-5--5-5------7-7-7--9-9--5-5--7-7-------|
A |--7-7------5-5-5--7-7--3-3--5-5------5-5-5--7-7--3-3--7-7-------|
E |--5-5-----------------------3-3-----------------------5-5-------|

E |----------------------------------------------------------------|
B |----------------------------------------------------------------|
G |--7-7-7--9-9--5-5-----------7-7-7--9-9--5-5--7-7----------------|
D |--7-7-7--9-9--5-5--5-5------7-7-7--9-9--5-5--7-7--7-------------|
A |--5-5-5--7-7--3-3--5-5------5-5-5--7-7--3-3--5-5--7-------------|
E |-------------------3-3----------------------------5-------------|




The next bit is basically the intro riff again with a few slight differences - x1

E |----------------------------------------------------------------|
B |----------------------------------------------------------------|
G |----------------------------------------------------------------|
D |----------------------------------------------------------------|
A |---------------3-5b------------------5-5b------------------3-5b-|
E |--3-5-5-5-5-55-------3-5-5-5-5-3-5-3-------3-5-5-5-5-3-5-3------|

E |----------------------------------------------------------------|
B |----------------------------------------------------------------|
G |----------------------------------------------------------------|
D |----------------------------------------------------------------|
A |----7-5b-----7-5b-----7-5b--55-5/7\3-3--------------------------|
E |-5pm-----5pm------5pm-------------------------------------------|




Now back to normal again - x3

E |----------------------------------------------------------------|
B |----------------------------------------------------------------|
G |----------------------------------------------------------------|
D |----------------------------------------------------------------|
A |--------------3-5b----------------7-5b-----------------3-5b-----|
E |--5-5-5-5-55--------5-5-5-3-5-3-5--------5-5-5-5-3-5-3----------|

E |----------------------------------------------------------------|
B |----------------------------------------------------------------|
G |----------------------------------------------------------------|
D |----------------------------------------------------------------|
A |----7-5b-----7-5b-----7-5b--55-5/7\3-3--------------------------|
E |-5pm-----5pm------5pm-------------------------------------------|




Chorus x2

E |----------------------------------------------------------------|
B |----------------------------------------------------------------|
G |--------------5-7--------------------9-7------------------------|
D |--7-7-7-7-7-7-5-7------7-7-7-7-5-7-7-9-7------------------------|
A |--7-7-7-7-7-7-3-5------7-7-7-7-5-7-7-7-5------------------------|
E |--5-5-5-5-5-5----------5-5-5-5-3-5-5----------------------------|

E |----------------------------------------------------------------|
B |----------------------------------------------------------------|
G |--------------5-7------9-7-9-7-9-7--7-7-7--9-9--5-5-------------|
D |--7-7-7-7-7-7-5-7------9-7-9-7-9-7--7-7-7--9-9--5-5-------------|
A |--7-7-7-7-7-7-3-5------7-5-7-5-7-5--5-5-5--7-7--3-3-------------|
E |--5-5-5-5-5-5---------------------------------------------------|




Bridge x1

E |----------------------------------------------------------------|
B |----------------------------------------------------------------|
G |-----------7-7-7--9-9--5-5-----------7-7-7--9-9--5-5------------|
D |--7-7------7-7-7--9-9--5-5--5-5------7-7-7--9-9--5-5--7-7-------|
A |--7-7------5-5-5--7-7--3-3--5-5------5-5-5--7-7--3-3--7-7-------|
E |--5-5-----------------------3-3-----------------------5-5-------|

E |----------------------------------------------------------------|
B |----------------------------------------------------------------|
G |--7-7-7--9-9--5-5-----------7-7-7--9-9--5-5--7-7----------------|
D |--7-7-7--9-9--5-5--5-5------7-7-7--9-9--5-5--7-7--7-------------|
A |--5-5-5--7-7--3-3--5-5------5-5-5--7-7--3-3--5-5--7-------------|
E |-------------------3-3----------------------------5-------------|




Outro riff -

E |----------------------------------------------------------------|
B |----------------------------------------------------------------|
G |--9-9-9--7-7--5-5--4-4------9-9--7-7--5-5--4-4------------------|
D |--9-9-9--7-7--5-5--4-4------9-9--7-7--5-5--4-4------------------|
A |--7-7-7--5-5--3-3--2-2------7-7--5-5--3-3--2-2------------------|
E |----------------------------------------------------------------|

E |----------------------------------------------------------------|
B |----------------------------------------------------------------|
G |--9-9--7-7--5-5--4-4--------9-9--7-7--5-5--4-4------------------|
D |--9-9--7-7--5-5--4-4--------9-9--7-7--5-5--4-4------------------|
A |--7-7--5-5--3-3--2-2--------7-7--5-5--3-3--2-2------------------|
E |----------------------------------------------------------------|

E |----------------------------------------------------------------|
B |----------------------------------------------------------------|
G |--9-9--7-7--5-5--4-4--------9-9--7-7--5-5--4-4------------------|
D |--9-9--7-7--5-5--4-4--------9-9--7-7--5-5--4-4--7---------------|
A |--7-7--5-5--3-3--2-2--------7-7--5-5--3-3--2-2--7---------------|
E |------------------------------------------------5---------------|


10. Im Slowly Turning into You
----------------------------------------------------------------------------

E|------------|
B|------------|
G|------------|
D|-5r----3-3--| x 18 (clean)
A|-5r----3-3--|
E|-3r----1-1--|


E|-----------------------------------------------------|
B|-----------------------------------------------------|
G|------------7r---------7-5r---7/5--3---3-2-----------|
D|-5r----3/5--7r-------5-7-5r---7/5--3---3-2-----------| x6 (distortion)
A|-5r----3/5--5r-------5-5-3r---5/3--1---1-0-----------|
E|-3r----1/3-----------3-------------------------------|


E|------------|
B|------------|
G|------------|
D|-5r----3-3--| x 12 (distortion)
A|-5r----3-3--|
E|-3r----1-1--|


E|------------|
B|------------|
G|------------|
D|-5r----3-3--| x 5 (clean)
A|-5r----3-3--|
E|-3r----1-1--|


E|-------------------------------------------------------------------------------------------------------------------|
B|-------------3--6---------------3--------------------3--6------------------------------------3-6-------------------|
G|---------3-5----------------3-5-----3------------3-5---------------3-5-5b3-3r-------------3-5----------------------|
D|-3-5-3-5------------3-5-3-5--------------3-5-3-5-----------3-5-3-5---------------3-5-3-5---------------------------|
A|-------------------------------------------------------------------------------------------------------------------|
E|-------------------------------------------------------------------------------------------------------------------|


E|------------------------------------------------------5-5-3r------------10-8-------------------10-8----------------|
B|---------------------------------3--6-----3-6----3-6-------------------------11-10-11-10-8----------11-10-11-10-8r-|
G|-----------------------------3-5--------5------5-------------------------------------------7r----------------------|
D|-3---3-3-3-4-5r------3-5-3-5---------------------------------------------------------------------------------------|
A|-------------------------------------------------------------------------------------------------------------------|
E|-------------------------------------------------------------------------------------------------------------------|

E|-10-8---------------------------------5-5----|
B|------11-10-11-10-8r-----6-------6--------8--|
G|-----------------------5---7---5---7---------|
D|---------------------------------------------|
A|---------------------------------------------|
E|---------------------------------------------|


E|-----------------------------------------------------|
B|-----------------------------------------------------|
G|------------7r---------7-5r---7/5--3---3-2-----------|
D|-5r----3/5--7r-------5-7-5r---7/5--3---3-2-----------| x4 (distortion)
A|-5r----3/5--5r-------5-5-3r---5/3--1---1-0-----------|
E|-3r----1/3-----------3-------------------------------|


11. A Martyr for My Love for You
----------------------------------------------------------------------------

e|----------------------|
B|-(1)------------------|
G|--2-------------------|
D|--2-------------------| x1
A|--0-------------------|
E|----------------------|

Then fast strumming Am then Em

e|--0----------------0--|
B|--1--------0h1---0----|
G|----------------------|
D|---------2------------| x1
A|------0---------------|
E|---------------0------|

e|-------------------0--|
B|-----------0h1---0----|
G|----------------------|
D|---------2------------| x3
A|------0---------------|
E|---------------0------|

Verse 1:

        Am          Em
She was sixteen and six feet tall

     D                         C
In a crowd of teenagers comin' out of the zoo

    Am                  Em
She stumbled started to slip and fall

       D                             C
Teeter-tottered on the top of patent leather shoes

  Am          Em
I happened to catch her and said,

       D                      C
"maybe these ruby shoes are a little cumbersome for you"


e|-------------------0--|
B|-----------0h1---0----|
G|----------------------|
D|---------2------------| x2
A|------0---------------|
E|---------------0------|

          Am   Em
Maybe for you, now


e|---------------------------|
B|---------------------------|
G|---------------------------|
D|---------------------------|
A|-0-2-3-/5-3-2-0r-----------|
E|---------------------------|

Verse 2:

But not as shaky as I must have seemed
Talkin' junk through her giggle, little teenage dream
And on the phone I could not compete
My dumb-love fake competence was getting weak
For a sec' I thought I sounded sweet
But sure 'nough in a gruff, faint voice
I heard myself speak


e|-------------------------------|
B|-------------------------------|
G|-------------------------------|
D|-------------------------------| x1
A|-------------------------------|
E|-5-5--5-5-7-8----5-5-5--7-8----|


Chorus:

D              A
I could stay a while

    C               G
But sooner or later I'll break your smile

D         A
And I can tell a joke

    C                 G
But one of these days I'm bound to choke

D                    A
And we could share a kiss

      C                    G
But I feel like I can't go through with this

    D              A
And I bet we could build a home

      C                    G
But I know the right thing for me to do

                Am
Is to leave you alone

          Am     Em
Leave you alone, now


e|--------------------------------|
B|--------------------------------|
G|--------------------------------|
D|--------------------------------| x3
A|------0r--0-2-3-2---------------|
E|-------------------0r--3r-------|

e|--------------------------------|
B|--------------------------------|
G|--------------------------------|
D|--------------------------------| x1
A|----------0-2-3-2---------------|
E|-------------------0r--3r-------|

e|--------------------------------|
B|--------------------------------|
G|--------------------------------|
D|--------------------------------| x3
A|------0r--2-3-2-----------------|
E|-----------------0r--3r---------|

e|--------------------------------|
B|--------------------------------|
G|--------------------------------| x1 (let the A-String ring while you play
D|--------------------------------| the riff on E-String, listen to the song
A|-0r-----------------------------| so you know what i mean)
E|-----7-8-10-8-7-5---------------|

Verse 3:

I'm beginning to like you
So you probably won't get what I'm going to do
I'm walkin' away from you
It probably don't make much sense to you
But I'm trying to save you
From all of the things that I'll probably say or do

e|----------------------0------------|
B|------------0h1p0---0--------------|
G|-----------------------------------|
D|---------2-------------------------| x4 (while playing the third time Jack 
A|------0----------------------------|     continues to sing)
E|-----------------------------------|

I'll probably do


Chorus:

I could stay a while
But sooner or later I'll break your smile
And I can tell a joke
But one of these days I'm bound to choke
And we might share a kiss
But I feel like a can't go through with this
And I bet we could build a home
But I know the right thing for me to do
Is to leave you alone
Leave you alone, now


Verse 4:

You'll probably call me a fool
And say I'm doin' exactly what a coward would do
And I'm beginning to like you
What a shame it's a lame way to live
But what can I do?
I hope you appreciate what I do
I'm a martyr for my love for you
A martyr for my love for you, now
A martyr for my love for you
A martyr for my love for you

e|-------------------0--|
B|-----------0h1---0----|
G|----------------------|
D|---------2------------| x1 (distortion)
A|------0---------------|
E|---------------0------|

e|----------------------|
B|-(1)------------------|
G|--2-------------------|
D|--2-------------------| x1 (clean)
A|--0-------------------|
E|----------------------|


________________________________________________

Tabs
Notice: I didn't add the riffs from above
________________________________________________



Jack play's through the verses the following riff
e|--------------------0----------------------------------|
B|------------0h1---0------------------------------------|
G|--------------------------------7----------------------|
D|---------2--------------------7------------------------|
A|------0---------------------5---------3--3-3-2-0-------|
E|----------------0--------------------------------------|



Besides you have to play from 03:23 - 03:38
e|--------------------0----------------------------------|
B|------------0h1---0------------------------------------|
G|--------------------------------7----------------------|
D|---------2--------------------7------------------------|
A|------0---------------------5---------3--3-3-2-0-------|
E|----------------0--------------------------------------|

e|--------------------0----------------------------------|
B|------------0h1---0------------------------------------|
G|--------------------------------7----------------------|
D|---------2--------------------7------------------------|
A|------0---------------------5---------3---2---0--------|
E|----------------0--------------------------------------|

e|--------------------0-----------------|
B|------------0h1---0-------------------|
G|--------------------------------------|
D|---------2----------------------------|
A|------0---------------------0r--------|
E|----------------0---------------------| 


12. Catch Hell Blues
----------------------------------------------------------------------------

Open A tuning (EAEAC#E) With slide

Break
|-------------------------------------------------------------------|
|-------------------------------------------------------------------|
|------0-----2-----3-----5-------------10-------12-----8-----7------|
|----0-----2-----3-----5------------10-------12------8-----7--------|
|--0-----2-----3-----5-----5/8-7-10-------12-------8-----7-----5\3--|
|-------------------------------------------------------------------|

|-------------------------------------------------------|
|-------------------------------------------------------|
|------7-----8-----5-----3-----3--0--3p0-3--3p0--3\--0--|
|----7-----8-----5-----3-------3--0--3p0-3--3p0--3\--0--|
|--7-----8-----5-----3-----3/7-3--0--3p0-3--3p0--3\--0--|
|-------------------------------------------------------|

|-------------------------------------------------------------------|
|-------------------------------------------------------------------|
|------0-----2-----3-----5-------------10-------12-----8-----7------|
|----0-----2-----3-----5------------10-------12------8-----7--------|
|--0-----2-----3-----5-----5/8-7-10-------12-------8-----7-----5\3--|
|-------------------------------------------------------------------|

|-------------------------------------------------------|
|-------------------------------------------------------|
|------7-----8-----5-----3-----3--0--3p0-3--3p0--3\--0--|
|----7-----8-----5-----3-------3--0--3p0-3--3p0--3\--0--|
|--7-----8-----5-----3-----3/7-3--0--3p0-3--3p0--3\--0--|
|-------------------------------------------------------|

|-------------------------------------------------------------------|
|-------------------------------------------------------------------|
|--0-0-0-2-2-2-3-3-3-5-5-5-5/8-7-10-10-10-12-12-12-8-8-8-7-7-7-5\3--|
|--0-0-0-2-2-2-3-3-3-5-5-5-5/8-7-10-10-10-12-12-12-8-8-8-7-7-7-5\3--|
|--0-0-0-2-2-2-3-3-3-5-5-5-5/8-7-10-10-10-12-12-12-8-8-8-7-7-7-5\3--|
|-------------------------------------------------------------------|

|-------------------------------------------------------|
|-------------------------------------------------------|
|--7-7-7-8-8-8-5-5-5-3-3-3-3/7-3--0--3p0-3--3p0--3\--0--|
|--7-7-7-8-8-8-5-5-5-3-3-3-3/7-3--0--3p0-3--3p0--3\--0--|
|--7-7-7-8-8-8-5-5-5-3-3-3-3/7-3--0--3p0-3--3p0--3\--0--|
|-------------------------------------------------------|

|-------------------------------------------------------------------|
|-------------------------------------------------------------------|
|--0-0-0-2-2-2-3-3-3-5-5-5-5/8-7-10-10-10-12-12-12-8-8-8-7-7-7-5\3--|
|--0-0-0-2-2-2-3-3-3-5-5-5-5/8-7-10-10-10-12-12-12-8-8-8-7-7-7-5\3--|
|--0-0-0-2-2-2-3-3-3-5-5-5-5/8-7-10-10-10-12-12-12-8-8-8-7-7-7-5\3--|
|-------------------------------------------------------------------|

|------------------------------------|
|------------------------------------|
|--7-7-7-8-8-8-5-5-5-3-3-3-3/7-3--0--|
|--7-7-7-8-8-8-5-5-5-3-3-3-3/7-3--0--|
|--7-7-7-8-8-8-5-5-5-3-3-3-3/7-3--0--|
|------------------------------------|

Verse
|--------(Play 4 Times)-------------------|
|-----------------------------------------|
|--0-0--2-2--3-3--5-5--0-0--2-2--3-3--5\--|
|--0-0--2-2--3-3--5-5--0-0--2-2--3-3--5\--|
|--0-0--2-2--3-3--5-5--0-0--2-2--3-3--5\--|
|-----------------------------------------|

Start of solos (with wah pedal)
|------(Play 2 Times)-------------------|
|---------------------------------------|
|--12/15-15-15-15-15-12-12-14-12-12-14--|
|--12/15-15-15-15-15-12-12-14-12-12-14--|
|---------------------------------------|
|---------------------------------------|

After solos
|--------------------------------------------------------------------------|
|--------------------------------------------------------------------------|
|------9-9-9-9/10\-7-9\------7-7-7-7/8\-5-7\--------12-12-12-12/13\-10-12\-|
|------9-9-9-9/10\-7-9\------7-7-7-7/8\-5-7\--------12-12-12-12/13\-10-12\-|
|--7/9-----9-9/10\-7-9\--5/7-----7-7/8\-5-7\--10/12-------12-12/13\-10-12\-|
|--------------------------------------------------------------------------|

Ending
|-----------------------------------|
|-----------------------------------|
|------0-----2-----3-----5-------0--|
|----0-----2-----3-----5---------0--|
|--0-----2-----3-----5-----5/8\7-0--|
|-----------------------------------|


13. Effect and Cause
----------------------------------------------------------------------------

Intro: A E A

A                                         E                    A
I guess you have to have a problem if you want to invent a contraption
A                                                  E
First You Cause a train wreck, then you put me in traction
A
First came an action, then a reaction
        D
But you can't switch around for your own satisfaction
         A                             E           A
Well you burnt my house down, then got mad at my reaction


A                             E                     A
Well in every complicated situation of the human relation
A                                                  E
To make sense of it all, takes a whole lotta concentration
A
Well you can blame a baby, for her pregnant ma'
       D
And if theres one of these unavoidable laws
              A                     E                    A
It's that you just can't take the effect and make it the cause


Chorus
          D                    D
You can't take the effect, and make it the cause
        A                       A
I did't rob a bank, because you made up the law
      D                     D
Blame me for robbing Peter, don't you blame Paul
          A 
You can't take the effect and make it the cause


A                                      E                     A
I ain't the reason that you gave me no reason to return your call
A                                                            E
You built a house of cards and got shocked when you saw them fall
A
Well, I ain't saying I'm innocent, in fact the reverse
              D
But if you're headed to the grave, you don't blame the hearse
A                                        E                           A
You're like a little girl yelling at her brother 'cause you lost his ball


A                                     E                   A
Well you keep blaming me for what you did, and that ain't all
A                                                  E
The way you clean up a wreck is enough to give one pause
A
You seem to forget just how this all started
      D 
I'm reacting to you because you left me broken hearted
A                             E                     A                
See, you just can't take the effect and make it the cause



Chorus
          D                    D
You can't take the effect, and make it the cause
         A                       A
I didn't rob a bank, becuase you made up the law
      D                     D   
Blame me for robbing Peter, dont you blame Paul
          A
You can't take the effect, and make it the cause


13. Baby Brother
----------------------------------------------------------------------------

Once Again Who Knows?





Related for Icky Thump tab