Guitaretab - guitar tabs
Song name
# A B C D E F G H I J K L M N O P Q R S T U V W X Y Z

White Stripes - Ball And Biscuit tab

The White Stripes  Ball & Biscuit

Intro/Riff
|----0---0-----0---0------0---0-------0---0--------0---0-----0---0---------|
|------3---------3----------3-----------3------------3---------3-----------|
|---------------------------------------------0-------------------2b-4\2p0-|
|---------------------x0---------xx----------x0----------------------------|
|2--------------------x2---------xx----------xx-2---------2----------------|
|0--------3-0---------x3-0-------xx-0--------x3-0-------3-0----------------|

|----0---0--------0---0---------0---0-----0---0------------x-x---0---0-----|
|------3---2b-0-----3-------------3---------3--------------x-x-----3-------|
|-------------------------0h1-------------------2b-4\2p0---2-4-------------|
|-----------------------x--------------------------------x-x-x---------x-x-|
|-2---------------------x-----2---------2----------------x-----2-------x-x-|
|-0-------------0-------x-----0-------3-0----------------x-----0-------x-x-|

Bridge
|-----------------------------------|  |-----------------------------------|
|--2--------------------------------|  |-----------------------------------|
|--2---2-4-2-0-2-0--2---2-4-2-0-2-0-|  |--4---4-2-4-2-4-2--2---2-4-2-0-2-0-|
|--2---2-4-2-0-2-0--2---2-4-2-0-2-0-|  |--4---4-2-4-2-4-2--2---2-4-2-0-2-0-|
|--0-0-0-0-0-0-0-0--0-0-0-0-0-0-0-0-|  |--2-2-2-2-2-2-2-2--0-0-0-0-0-0-0-0-|
|-----------------------------------|  |-----------------------------------|

|-------0-----0-0-----0-0------0------------------0-----0-0-----0-0-----0--|
|---(0)---(0)-----(0)-----(0)--0-(0)----------(0)---(0)-----(0)-----(0)-0-0|
|----4-----3-------2-------0h1---(1)-(1)-----3h4-----3-------2-------0h1--1|
|------------------------------------(0)-x0--------------------------------|
|2---------------------------------------xx-2------------------------------|
|0---------------------------------------x3-0------------------------------|

Solo 1
|-----0---0-0---0-0---0---0-----------------17b-15----22-22^--17b-15-----|
|-------3-----3---------3--------------------------17----------------17--|
|---------------------------4--4--4-4--4-4-------------------------------|
|---------------------------4--4--4-4--4-4-------------------------------|
|--2----------------2-------2--2--2-2--2-2-------------------------------|
|--0----------------0----------------------------------------------------|

|----------------------------------17-17^----17-17^-17-15----15---------|
|-----------------------------------------17--------------17----17\10---|
|--14^-14^-14b-12-14b-14p12-14p12---------------------------------------|
|-----------------------------------------------------------------------|
|-----------------------------------------------------------------------|
|-----------------------------------------------------------------------|

|--17-15---------------17-17-15-------------------24^-24-24-24-24-24^-22---|
|--------13-15-15^-13-----------13-13h15^-17-15^-------------------------24|
|--------------------------------------------------------------------------|
|--------------------------------------------------------------------------|
|--------------------------------------------------------------------------|
|--------------------------------------------------------------------------|

|24\19/24--24-22-12/24-10-12-14-12-14-12-10-12-1015^-15^-15-15^-13-------|
|--------24--------------------------------------------------------15^-15-|
|-------------------------------------------------------------------------|
|-------------------------------------------------------------------------|
|-------------------------------------------------------------------------|
|-------------------------------------------------------------------------|

Solo 2
|--------------------------------------------------------------------------|
|17^-17-15-17-17-17-15-17-15^--17-16-17-16-17-16-----17^-17-15-17-17-17-15-|
|--------------------------------------------------------------------------|
|-------------------------------------------------xx-----------------------|
|-------------------------------------------------xx-----------------------|
|-----------------------------------------------17xx-----------------------|

|17^-17^-15-17-15-17-17b-17^-15\817^-17-15-----17-17-15-17-20-17-17-15-17-|
|------------------------------------------15-13---------------------------|
|--------------------------------------------------------------------------|
|--------------------------------------------------------------------------|
|--------------------------------------------------------------------------|
|--------------------------------------------------------------------------|

|---------------------17b----17b----17b----17b-15----------22-22b-----|
|-15-15^-13-1313b--------------------------------17-20\17------------|
|---------------------------------------------------------------------|
|------------------14-----14-----14-----14----------------------------|
|---------------------------------------------------------------------|
|---------------------------------------------------------------------|
[ Tab from: http://www.guitaretab.com/w/white-stripes/46677.html ]
|--------------------------------------------------------------------------|
|--------------------------------------------------------------------------|
|(12)----12-14^-14-12----12---12-------------------------------------------|
|-----14--------------14----14---14-14--12-14b-14-12-----------------------|
|----------------------------------------------------15-10-12-10-----------|
|----------------------------------------------------------------12-10-(8)\|

|--0---0----------0---0---------0---0--------0---0------------------------3|
|----3--------------3-------0-----3------------3---xxxx------------2-3-2---|
|---------------------------0----------------------xxxx-4b-2p0-----------0-|
|--------x-x-0----------x-x-0---------x-x----------xxxx--------2-----------|
|2-------x-x-2----------x-x-x---------x-x---2------------------0-0---------|
|0-------x-x-3--0-------x-x-x-0-------x-x-3-0------------------------------|

|---------------3----------0-0---------------------0-----------------------|
|-----2-3-2----------------------------------------------------------------|
|-----------0-2---4b-2p0-----------0h1---------0h1---0-2h4-4-4p2p0-2-0-----|
|-2----------------------------x-x-------------------------------------2-0-|
|-0-0--------------------2-----x-x-----2-----------------------------------|
|------------------------0-----x-x-----0-0h2h3-----------------------------|

|------------------------333333333-----0-x-0-0-x-0-0---0---0--------------|
|------------------------xxxxxxxxx-----x-3-x-x-3-x-x---x-3-x--------------|
|4---4-x-4-x-2-0-----2---xxxxxxxxx--xx-x-x-x-x-x-x-x-----------4-4-4-4-4-4|
|4---4-x-x-x-x-x-----2--------------xx---x-x-x-x-x-x-x---------4-4-4-4-4-4|
|2-2-2-x-x-x-x-x-----0-0------------xx-2---------------2-------2-2-2-2-2-2|
|----------------0h3----------------xx-0---------------0------------------|
Solo 3
|17^-17^-17^-17-17-17-15-17^-17^-17^-17^-17^-17-17-15-19-17-19-17-17^-17^15|
|--------------------------------------------------------------------------|
|--------------------------------------------------------------------------|
|--------------------------------------------------------------------------|
|--------------------------------------------------------------------------|
|--------------------------------------------------------------------------|

|22b-22-24-22-21-19-17-15--------------------------------------------------|
|-------------------------13-13-13-15-13-15-13-15-13-13--13-13b-13b-13b----|
|------------------------------------------------------14--------------16--|
|--------------------------------------------------------------------------|
|--------------------------------------------------------------------------|
|--------------------------------------------------------------------------|

|15-12-15-12-----15-12-15-12-----------------------------------------------|
|-----------(12)\------------------11------------------------------------13|
|-------------------------------12----14-12-14b-12-14-12-14-12-14-12-14-12-|
|----------------------------14--------------------------------------------|
|--------------------------------------------------------------------------|
|--------------------------------------------------------------------------|

|----------------------------------------22^22^24-22-24-22-24-22h24-24-22|
|------------------------------------------------------------------------|
|--------------------------------12/15-16--------------------------------|
|12-14-12-14-------------------------------------------------------------|
|-----------14-12-10-12-10-12/14-----------------------------------------|
|------------------------------------------------------------------------|

|-24-22-24-22-24-22-24-22-24-24-24-24p22-22-24-22-24-22^-|
|--------------------------------------------------------|
|--------------------------------------------------------|
|--------------------------------------------------------|
|--------------------------------------------------------|
|--------------------------------------------------------|

|--24-24-24-24-24-22^-24-22^--|
|-----------------------------|
|-----------------------------|
|-----------------------------|
|-----------------------------|
|-----------------------------|

|-29-27-29-29-27-(27)\-17-15-17-20-20^-20----------------------------------|
|--------------------------------------------------------------------------|
|-----------------------------------------14^-14^-14^-14-12-14^-14-14-12-14|
|--------------------------------------------------------------------------|
|--------------------------------------------------------------------------|
|--------------------------------------------------------------------------|

|-------12-------------12-------12------------------3--------------|
|-----------------------------------------------------1-3-1--------|
|-13h14----13h14-13h14----13h14----142h4-4--2-4-2----------2-0-2--|
|------------------------------------------------------------------|
|------------------------------------------------------------------|
|------------------------------------------------------------------|

|------------------------|
|------------------------|
|---------------------4--|
|---------------------4--|
|---------------------2--|
|--4-4-4-5-5-5-6-6-6-----|

Related for Ball And Biscuit tab