Song name
# A B C D E F G H I J K L M N O P Q R S T U V W X Y Z

William Fitzsimmons - Beautiful Girl tab

-------------------------------------------------------------------------------
                             BEAUTIFUL GIRL - William Fitzsimmons
-------------------------------------------------------------------------------
Tabbed by: nBode
Email: noel.bode@yahoo.com

Tuning: Standard

Intro & Verse

e|--------------0------------------------------------|
B|--1-----1-----------1-----------1-----1p0---0------|
G|------2---2-------2---2-------2---2-----2-------0--|
D|----3-------3---3-------3---2-------2-----2---2----|
A|--3-----------------------0------------------------|
E|---------------------------------------------------|

e|--------------------------------------0------------|
B|--------0-----------0-----------0-----------0------|
G|------0---0-------0---0-------0---0-------0---0----|
D|----0-------0---0-------0---2-------2---2-------2--|
A|--------------0h2----------------------------------|
E|--3-----------------------0------------------------|

e|--------------0------------------------------------|
B|--1-----1-----------1-----------1-----1p0---0------|
G|------2---2-------2---2-------2---2-----2-------0--|
D|----3-------3---3-------3---2-------2-----2---2----|
A|--3-----------------------0------------------------|
E|---------------------------------------------------|

e|---------------------------------------------------|
B|--------0-----0h2---2-----0------------------------|
G|------0---0-----0-------0--------------------------|
D|----0-------0-----0---0----------------------------|
A|---------------------------------------------------|
E|--3-----------------------3------------------------|
************************************

| /   slide up
| \   slide down
| h   hammer-on
| p   pull-off
| ~   vibrato
| +   harmonic
| x   Mute note
| b   Bend
| pb  Pre-bend
| br  Bend release
| pbr Pre-bend release
| brb Bend release bend

************************************
Tap to rate this tab
 
# A B C D E F G H I J K L M N O P Q R S T U V W X Y Z