Song name
# A B C D E F G H I J K L M N O P Q R S T U V W X Y Z

Wintersleep - Ambulance tab

-------------------------------------------------------------------------------
			     Ambulance - Wintersleep
-------------------------------------------------------------------------------


This is my first tab ive ever submitted.
and i hope you guys can use this and figure out the rest of the song.
this is as close as i can get to the riff.

Tabbed by:kidnamedziggy
Email:luvmaster_5@hotmail.com

Tuning:full step down

e|---------------------------------------------------------------------------|
B|---------------------------------------------------------------------------|
G|-------7p-------6p-------7p--------4~~-------------------------------------|
D|---4-----------------------------------------------------------------------|
A|------------0--------------------------------------------------------------|
E|---------------------7--------3--------------------------------------------|

and then
e|---------------------------------------------------------------------------|
B|---------------------------------------------------------------------------|
G|-------4p-------6p-------2p-------4~~--------------------------------------|
D|---------------------------------------------------------------------------|
A|------------0--------------------------------------------------------------|
E|---3-----------------2--------3--------------------------------------------|

this is played for almost all of the song

| /  slide up
| \  slide down
| h  hammer-on
| p  pull-off
| ~  vibrato
| +  harmonic
| x  Mute note

you can either e-mail me for corrections or just put the rest of the song up. 
^__^ ===============================================================================


Tap to rate this tab
# A B C D E F G H I J K L M N O P Q R S T U V W X Y Z