Song name
# A B C D E F G H I J K L M N O P Q R S T U V W X Y Z

Wintersleep - Dead Letter The Infinte Yes tab

Artist:		Wintersleep
Song:		Dead Letter & the Infinite Yes
Album: 		Welcome to the Night Sky
Tabbed by: 	Ryan Lloyd      rdlloyd@hotmail.com




E	Fm	D	A
E	Fm	D	A


E	Fm	D	A
I found a letter it read
E	Fm	D	A
"Our existence has serious side effects"
E	Fm	D	A			*fill 1
Turned on the television
E	Fm	D	A
It's telling me the world is collapsing


E	Fm	D	A
I think it's coming and it comes so fast
E		Fm
I'm hearing whispers of an infinite yes
D		A
And I don't know why it is
E	Fm
Our bodies are dead, why you look so sad?


E	Fm	D	A
E	Fm	D	A


E	Fm	D	A
And my therapist said
E	Fm	D	A
"We've evolved through a series of accidents"
E	Fm	D	A			*fill 1
There's been talk of chemical imbalances
E	Fm	D	A
Restless sense of detachment, nausea and or violence


E	Fm	D	A
I think it's coming and it comes so fast
E		Fm
I'm hearing whispers of an infinite yes
D		A	
And I don't know why it is, I feel it coming, 
E		Fm
I think it's real and significant
D					
I think I think I think a little too often 
A
that's what my therapist said
E		Fm
We're alone in this wilderness 
	D			A
left to choke on the pills and to feed on the viruses
E		Fm
I think it's coming and it comes so fast




	E		Fm		D		A
	Ahhh

e|---------------------------------------------------------------------------|
B|--------10-9---------------------------------------------------------------|
G|--------------------------------------9------------------------------------|
D|-------------11------------------------------------11-9-7------------------|
A|---------------------------------------------------------------------------|
E|---------------------------------------------------------------------------|


	E		Fm		D		A
	Ahhh

e|------------------------------12-------------------9----9----9-------------|
B|--------10-9-------------10-9-------------------12---12---12---------------|
G|---------------------------------------------------------------------------|
D|-------------11------------------------------------------------------------|
A|---------------------------------------------------------------------------|
E|---------------------------------------------------------------------------|


	E		Fm		D		A
	I think it's coming and it comes so fast

e|---------------------------------------7---7---9--10--9---9---7---7--------|
B|-------9------9----9----10----10----10--------------------------------9~---|
G|-----------11---11----------11----11---------------------------------------|
D|---------------------------------------------------------------------------|
A|---------------------------------------------------------------------------|
E|---------------------------------------------------------------------------|


	E		Fm		D		A
	I'm hearing whispers of an infinite yes

e|---------------------------------------7---7---9--10--9---9---7---7--------|
B|---------9----9----9----10----10----10--------------------------------9~---|
G|-----------11---11----------11----11---------------------------------------|
D|---------------------------------------------------------------------------|
A|---------------------------------------------------------------------------|
E|---------------------------------------------------------------------------|


	E		Fm		D		A
	Our bodies are dead, why you look so sad

e|---------------------------------------7---7---9--10--9---9---7---7--------|
B|---------9----9----9----10----10----10--------------------------------9~---|
G|-----------11---11----------11----11---------------------------------------|
D|---------------------------------------------------------------------------|
A|---------------------------------------------------------------------------|
E|---------------------------------------------------------------------------|


	E		Fm	
	Our bodies are dead, why you look so sad

e|---------------------------------------------------------------------------|
B|---------9----9----9----10----10----10-------------------------------------|
G|-----------11---11----------11----11---------------------------------------|
D|---------------------------------------------------------------------------|
A|---------------------------------------------------------------------------|
E|---------------------------------------------------------------------------|







*fill 1

e|----7-7-9-10-9-9-7-7------------9-----------------|
B|---------------------9~---------9-10~-------------|
G|--------------------------------------------------|
D|--------------------------------------------------|
A|--------------------------------------------------|
E|--------------------------------------------------|
Tap to rate this tab
# A B C D E F G H I J K L M N O P Q R S T U V W X Y Z