Guitaretab - guitar tabs
Song name
# A B C D E F G H I J K L M N O P Q R S T U V W X Y Z

Witchcraft - The Alchemist tab

Witchcraft - The Alchemist

There are just first song part till 4:00, but soon i will tab all song.
Tab structure is unpleasant, because i did not take care chords time  intervals and some 
are incorrect, but is better than nothing:)
Listen song carefully and all will be OK;) Next version will be better.
I was tabbing on acoustic guitar so don't know how it sounds on electric.

INTRO

	    8 times
e--------------------------------|-------------------|
B--------------------------------|-------------------|
G----9---7---5-------------------|-------------------|
D----9---7---5---9---2---7---9---|----10---12--------|
A----7---5---3---7---2---5---7---|-----8---10--------|
E----------------7---0---5---7---|-----8---10--------|


VERSE 1
					3 times
e-----------5-------------------------------5-------------------|
B-----------6-------------------------------6-------------------|
G-----------7-----5-------------------------7-----5-------------|
D-----------7---8---8--7--------------------7---8---8--7--------|
A----5--5-----------------8--7-------5--5-----------------------|
E---------------------------------------------------------------|
[ Tab from: http://www.guitaretab.com/w/witchcraft/182563.html ]
e-------------------------------|
B----8--------------------------|
G----7--------------------------|
D----5---3--5--7--3--5--2-------|
A----5---3--5--7--3--5--2-------|
E--------1--3--5--1--3--0-------|

VERSE1 x1


VERSE 2
					6 times
e---------0---------------0--------------0--------------0---------|
B-----1-------1-------1-------1------1-------1------1-------1-----|
G-------0---0-----------0---0----------0---0----------0---0-------|
D---------------2---------------2--------------2--------------2---|
A---3---------------3--------------2--------------2---------------|
E-----------------------------------------------------------------|

e---0-2-3-2p3h2---0-2--3-------|
B---3-----------3------3-------|
G---2------------------2-------|
D---0------------------0-------|
A---0------------------0-------|
E------------------------------|

CHORUS
	  11 times	2 times
e--------------------|------------|---0--3-------------------------------|
B--------------------|------------|---1--3-------------------------------|
G------------9-------|------------|---0--0-------------------------------|
D------------9-------|------------|---2--0-------------------------------|
A------------7-------|------------|---3--2------------7~--------5-7-5-2--|
E---0--3--0----------|---03-0-0--|---3--3-----0--0-0-----0--0-----------|

CHORUS x1

Enjoy brilliant song! Any comments to jgarnelis@gmail.com
Related for The Alchemist tab