Song name
# A B C D E F G H I J K L M N O P Q R S T U V W X Y Z

Within Temptation - All I Need tab

-------------------------------------------------------------------------------
			     All I Need - Within Temptation
-------------------------------------------------------------------------------
Tabbed by: guitar-me

Tuning: 1 step down

Intro:	4x
e|---------------------------------------------------------------------------|
B|---------0h-1p-0----------0h1p-0----------------------------0h1p-0---------|
G|-----2----------------2----------0---------0------------0----------0-------|
D|---2---2------------2---2--------------3-----3--------0---0----------------|
A|-0----------------0------------------3---3-----3---------------------------|
E|-----------------------------------1----------------3----------------------|

Pre-Chorus
e|---------------------------------------------------------------------------|
B|-------------------------------------------0-------------------------------|
G|---------0--------------------0--------2-----2-------2-------0-------------|
D|-----3-----3----------3-----0---0----2---2-----2---2---2---0---0-----------|
A|---3---3-----3------3---3----------0-------------0-------------------------|
E|-1----------------1-------3------------------------------3-----------------|

e|---------------------------------------------------------------------------|
B|-------------------------------------------0-------------------------------|
G|---------0----------------0------------0-----0-------0-------4/5-----------|
D|-----3-----3----------3-----3--------0---0-----0---0---0---4---------------|
A|---3---3-----3------3---3-----3--------------------------2-----------------|
E|-1----------------1----------------3-------------3-------------------------|

Chorus
e|---------------------------------------------------------------------------|
B|---------3------------------------------0----------------------------------|
G|-----5-----5-------5--------4-------2-----2--------2-------0---------------|
D|---5---5-----5---5---5\4--4---4---2---2-----2----2---2---0---0-------------|
A|-3-------------3--------2-------0--------------0---------------------------|
E|-------------------------------------------------------3-------------------|

e|---------------------------------------------------------------------------|
B|-------------------------------------------0-------------------------------|
G|---------0----------------0------------0-----0-------0-------4/5-----------|
D|-----3-----3----------3-----3--------0---0-----0---0---0---4---------------|
A|---3---3-----3------3---3-----3--------------------------2-----------------|
E|-1----------------1----------------3-------------3-------------------------|

e|---------------------------------------------------------------------------|
B|---------3------------------------------0----------------------------------|
G|-----5-----5-------5--------4-------2-----2--------2-------0---------------|
D|---5---5-----5---5---5\4--4---4---2---2-----2----2---2---0---0-------------|
A|-3-------------3--------2-------0--------------0---------------------------|
E|-------------------------------------------------------3-------------------|

e|---------------------------------------------------------------------------|
B|---------------------------------------------------------------------------|
G|---------0----------------0------------0-----------------------------------|
D|-----3-----3----------0-----0--------0---0---------------------------------|
A|---3---3-----3------0---0-----0--------------------------------------------|
E|-1----------------3----------------3-------3-------------------------------|



| /  slide up
| \  slide down
| h  hammer-on
| p  pull-off
| ~  vibrato
| +  harmonic
| x  Mute note
===============================================================================

Tap to rate this tab
# A B C D E F G H I J K L M N O P Q R S T U V W X Y Z