Song name
# A B C D E F G H I J K L M N O P Q R S T U V W X Y Z

Within Temptation - Utopia tab

by woet101

Tuning: All 1/2 down


Intro + 1st Verse:

2nd guitar:

-2------3--------------|
-3--x4--3--x4----------|
-2------2--------------|
-----------------------|
-----------------------|
-----------------------|

Refrain:

------------3--------------------------2---------|
------------3--------------------------2---------|
------------4--------------------------4---------|
------------5--------------------------4---------|
------------5--------------------------2---------|
------------3------------------------------------|
Why does it rain, rain, rain down on Utopia?


------------7-------------------------3------|
------------7-------------------------3------|
------------9-------------------------5------|
------------9-------------------------5------|
------------7-------------------------3------|
---------------------------------------------|
Why does it have to kill the ideas of who we are?


-------------7----------5----------------3---|
-------------7----------5----------------3---|
-------------9----------7----------------5---|
-------------9----------7----------------5---|
-------------7----------5----------------3---|
---------------------------------------------|
How will the lights die down, telling us who we are?

Verse:

1st guitar:

-3-----2-----7-----5------|
-3-----2-----7-----5------|
-4-----4-----9-----7------|
-5-----4-----9-----7------|
-5-----2-----7-----5------|
-3------------------------|


2nd guitar:

-2------3-------------|
-3--x4--3--x4---------|
-2------2-------------|
----------------------|
----------------------|
----------------------|


Before Ref:

-7-----5-----------------|
-7-----5-----------------|
-9-----7-----------------|
-9-----7-----------------|
-7-----5-----------------|
-------------------------|


Bridge (guitar 2):

-3-----2-----7-----2------3------2------3------|
-3-----2-----7-----3--x4--3--x4--3--x4--3--x4--|
-4-----4-----9-----2------2------2------2------|
-5-----4-----9-----0------0------0------0------|
-5-----2-----7---------------------------------|
-3---------------------------------------------|

for any questions: robin[dot]cf[at]gmx[dot]de
Tap to rate this tab
 
# A B C D E F G H I J K L M N O P Q R S T U V W X Y Z