Song name
# A B C D E F G H I J K L M N O P Q R S T U V W X Y Z

Won Ton Soup - She Makes Me tab

Won ton soup - She makes me

Guitar one   
E|--3----3----3---------------------------------------------
B|-3-3--3-3--3-3--------------------------------------------
G|-----4----5----7-7----------------------------------------
D|5---------------------------------------------------------(2x)
A|----------------------------------------------------------
E|----------------------------------------------------------
  
    Then guitar 1
E|----------------------------3----3----3----3--3-3---------
B|---------------------------3-3--3-3--3-3--3--3-3----------Repeat the 
G|5-5-4-4-2-2-0-2-4(hold)---5---4-----2----0--2-------------end half
D|---------------------------------------------------------- (4x)
A|----------------------------------------------------------
E|----------------------------------------------------------
    Guitar 2
E|----------------------------------------------------------
B|----------------------------------------------------------
G|5------5--------------------------------------------------
D|5-(4x)-5-(4x)-7------5------7-----------------------------
A|3------2------7-(4x)-5-(2x)-7-(2x)------------------------
E|--------------5------3------5-----------------------------
   Interlude
E|----------------------------------------------------------
B|3------3-----3------3-------------------------------------
G|5-(8x)-4-8x)-3-(8x)-2(5x)---------------------------------
D|----------------------------------------------------------
A|----------------------------------------------------------
E|----------------------------------------------------------
Tap to rate this tab
# A B C D E F G H I J K L M N O P Q R S T U V W X Y Z