Song name
# A B C D E F G H I J K L M N O P Q R S T U V W X Y Z

Won Ton Soup - Sadness tab

Won ton soup - Sadness
I cant exactly tell you the beat but you'll learn

E|----------------------------------------------------------
B|----------------------------------------------------------
G|----------------------------------------------------------
D|----------------------------------------------------------
A|----2-0h3-3-3-3-3-(2x)------------------------------------
E|0h3-------------------------------------------------------

E|----------------------------------------------------------
B|----------------------------------------------------------
G|----------------------------------------------------------
D|----0---2-2-2-2-2-(2x)------------------------------------
A|0h2-----3-3-3-3-3-----------------------------------------
E|----------------------------------------------------------


E|----------------------------------------------------------
B|----------------------------------------------------------
G|----0---2-2-2-2-2-(2x)-------0---2-2-2-2-2----------------
D|0h2-----3-3-3-3-3--------0h2-----0-0-0-0-0----------------
A|----------------------------------------------------------
E|----------------------------------------------------------

E|----------------------------------------------------------
B|----------------------------------------------------------
G|----0---2---0---2-----------------------------------------
D|0h2---3---2---0------2------------------------------------
A|-------------------3----2---------------------------------
E|------------------------3---------------------------------
Tap to rate this tab
# A B C D E F G H I J K L M N O P Q R S T U V W X Y Z