Song name
# A B C D E F G H I J K L M N O P Q R S T U V W X Y Z

Won Ton Soup - Last Day Of Summer tab

Last day of summer first day of school - Won ton soup

 Intro
E|----------------------------------------------------------
B|----------------------------------------------------------
G|----------------------------------------------------------
D|----9-7-----------9-7-------------------------------------
A|7-7-----5(5x)-7-7-----9(5x)-------------------------------
E|----------------------------------------------------------
  verse
E|----------------------------------------------------------
B|----------------------------------------------------------
G|9-----7-----9-----11-12-----------------------------------
D|9(8x)-7(8x)-9(8x)-11-12(8x)-------------------------------
A|7-----5-----7-----9--10-----------------------------------
E|----------------------------------------------------------
 1st chorus
E|----------------------------------------------------------
B|----------------------------------------------------------
G|7-----9-11------9-----------------------------------------
D|7(10x)9-11(10x)-9-11------12------------------------------
A|5-----7-9-------7-11(10x)-12(16x)-------------------------
E|------------------9-------10------------------------------
 2nd chorus
E|----------------------------------------------------------
B|----------------------------------------------------------
G|11------7------------6------------------------------------
D|11(10x)-7(10x)-7-----6(8x)--------------------------------
A|9-------5------7(8x)-4------------------------------------
E|---------------5------------------------------------------
          ^
       From there, palm mute
Tap to rate this tab
# A B C D E F G H I J K L M N O P Q R S T U V W X Y Z