Song name
# A B C D E F G H I J K L M N O P Q R S T U V W X Y Z

Xyz - Hh Boogie tab

H.H. Boogie
by XYZ

This is just the main riff which is in the intro and repeats in the chorus.
The rest of the chords should be easy enough to figure out on your own.

TO get this to sound just right, of course there are a lot of little things
that you have to do, such as palm muting, fret hand muting, chirping, etc.
Listen to the song and keep playing with it and you'll get it. I noted a
1/4 bend and a fret hand mute, but listen for more palm muting in the song,
such as with those notes on the D and A strings.

Intro/Main Riff
                                             fret hand
                     bend                      muted
--1-/-2--2------------------------------------------------------------|
--1-/-2--2--4--2--------------------------------x--x---4-4b-4r-4b-4r--|
------------4--2-------2b-----------------------x--x---4-4b-4r-4b-4r--|
-----------------4---------4--4--2--2-2--4-4------------------------|
--------------------4-------------------------------------------------|
----------------------------------------------------------------------|

                                             fret hand
                     bend                      muted
--1-/-2--2------------------------------------------------------------|
--1-/-2--2--4--2--------------------------------x--x------------------|
------------4--2-------2b-----------------------x--x------------------|
-----------------4---------4--4--2--2-2--4-4------------------------|
--------------------4----------------------------------2--------------|
-------------------------------------------------------0--------------|

                                             fret hand
                     bend                      muted
--1-/-2--2------------------------------------------------------------|
--1-/-2--2--4--2--------------------------------x--x------------------|
------------4--2-------2b-----------------------x--x---4-4b-4r-4b-4r--|
-----------------4---------4--4--2--2-2--4-4------------------------|
--------------------4-------------------------------------------------|
----------------------------------------------------------------------|

                                             fret hand
                     bend                      muted
--1-/-2--2------------------------------------------------------------|
--1-/-2--2--4--2--------------------------------x--x------------------|
------------4--2-------2b-----------------------x--x------------------|
-----------------4---------4--4--2--2-2--4-4------------------------|
--------------------4----------------------------------2--------------|
-------------------------------------------------------0--------------|

Tap to rate this tab
# A B C D E F G H I J K L M N O P Q R S T U V W X Y Z