Song name
# A B C D E F G H I J K L M N O P Q R S T U V W X Y Z

Yardbirds - I Wish You Would chords

Highlighted       Show chord diagrams
I Wish You Would:The Yardbirds.
Debut single in 1964 but didn't chart.
On album - For Your Love - in 1965.
Album made the charts at #96.

These aren't the original lyrics and are
group's interpretation.

INTRO: RIFF: played all the way through. All
in G until interlude. Switches to F, then back
to G. Watch/listen to YouTube version.

----------------------------------------|
----------------------------------------|
-----0---0----0-0--------0--------------|
-------3-------------3-3----------------|
----------------------------------------|
-----3----------------------------------|

#1.
G
Early in the morning, 'bout the break of day..

that's when my baby went away.

Come on now, baby, I wish you would..

You know, pretty baby, I love you so good.

#2.
G
Come on now, baby what you tryin' to do?

Trying to love me and some other man, too.

Come on now, baby, I love you so.

You know, pretty baby, I hate to see you go.

CHORUS:
G
All my life..I want to hold you..in my arms..
                                 F G
all night..(INTERLUDE:HARMONICA:)

----------------------------------------|
----------------------------------------|
-----0---0----0-0--------0--------------|
-------3-------------3-3----------------|
----------------------------------------|
-----3----------------------------------|

#3.
G
Early in the morning, 'bout the break of day..

that's when my baby went away.

Come on now, baby, I wish you would..

You know, pretty baby, I love you so good.

#4.
G
Come on now, baby what you tryin' to do?

Trying to love me and some other man, too.

Come on now, baby, I love you so.

You know, pretty baby, I hate to see you go.

OUTRO:
G
All my life..I want to hold you..in my arms..
            F G
all night..


A sixties smash from Kraziekhat.
Tap to rate this tab
# A B C D E F G H I J K L M N O P Q R S T U V W X Y Z