Song name
# A B C D E F G H I J K L M N O P Q R S T U V W X Y Z

Yardbirds - Heart Full Of Soul tab

Highlighted       Show chord diagrams
Intro


 v   v   v   v     v   v   v   v
	-----------------|-----------------|
	-----------------|-----------------|
	-----7---7-5-7-9-|-----7---5-7-5-7-|
	-0---------------|-----------------|
	-----------------|-----------------|
	-----------------|-----------------|



Em                   A

Sick at heart and lonely,

C                  Em
Deep in dark despair.

Em                     A
Thinking one thought only

C                     Em
Where is she tell me where.

Em                  A
And if she says to you

C               Em
She don't love me

Em                   A
Just give her my message

C               Em
Tell her of my plea


chorus
 

E                       G      A      E     
And I know that if she had me back again

            C       G        E
Then I would never make her sad.

             A         G          E  
I've gotta heart....... full of soul.


Solo......





Em                          A
She's been gone such a long time

C                  Em
Longer than I can bear

Em                      A
But if she says she wants me

C                       Em  
Tell her that I'll be there

E                   A
And if she says to you

C              Em
She don't love me

Em                    A
Just give her my message

C               Em
Tell her of my plea.





E                       G      A      E     
And I know that if she had me back again

            C       G        E
Then I would never make her sad.

             A         G          E  
I've gotta heart....... full of soul.




 v   v   v   v     v   v   v   v
	-----------------|-----------------|
	-----------------|-----------------|
	-----7---7-5-7-9-|-----7---5-7-5-7-|
	-0---------------|-----------------|
	-----------------|-----------------|
	-----------------|-----------------|


Tap to rate this tab
# A B C D E F G H I J K L M N O P Q R S T U V W X Y Z