Song name
# A B C D E F G H I J K L M N O P Q R S T U V W X Y Z

Yardbirds - Smokestack Lightning tab


            Pt 1
e---------0-3------------------------]
B---------0-3------3-----------------]
G-7s3------------2s4---4s2-2-0-------]
D-7s3--------------------------2-0-2-]
A------------------------------------]
E------0-----------------------------]

            Pt 2
e-3----------------------------------]
B-3-0-3-6------3---------------------]
G----------2s4---4s2-2-0-------------]
D-------------------------2-0-2------]
A------------------------------------]
E------------------------------------]
Tap to rate this tab
# A B C D E F G H I J K L M N O P Q R S T U V W X Y Z