Song name
# A B C D E F G H I J K L M N O P Q R S T U V W X Y Z

Yashin - Everytime tab

(Intro/Verse)
e|-------------------------------------------------------------------------|
B|-------------------------------------------------------------------------|
G|------------------14---12---17-------------------------------------------|
D|--3-3-3-3~----0---*----*----*----7-7-7-7-7-7-7-7-7-7-7-7-----------------|
A|--3-3-3-3~----0---12---10---15---7-7-7-7-7-7-7-7-7-7-7-7-----------------|
E|--3-3-3-3~----0------------------7-7-7-7-7-7-7-7-7-7-7-7-----------------|
    *   *       *  (x3) (x3) (x6)          * * * * * * * *
   (x5)(x4)    (x5)                     (Listen for strumming)(x2)
    ^----------------------------^
              (All x 2)


(Chorus)
e|-------------------------------------------------------------------------|
B|-------------------------------------------------------------------------|
G|-------------------------------------------------------------------------|
D|---------3-3-3-3-3-3-3-3-5-5-5-5-5-5-5-5-0-0-0-0-0-0-0-0-----------------|
A|---------3-3-3-3-3-3-3-3-5-5-5-5-5-5-5-5-0-0-0-0-0-0-0-0-----------------|
E|---------3-3-3-3-3-3-3-3-5-5-5-5-5-5-5-5-0-0-0-0-0-0-0-0-----------------|

e|-------------------------------------------------------------------------|
B|-------------------------------------------------------------------------|
G|-------------------------------------------------------------------------|
D|---------7-7-7-7-7-7-7-7-8-8-8-8-8-8-8-8-10-10-10-10-10-10-10-10---------|
A|---------7-7-7-7-7-7-7-7-8-8-8-8-8-8-8-8-10-10-10-10-10-10-10-10---------|
E|---------7-7-7-7-7-7-7-7-8-8-8-8-8-8-8-8-10-10-10-10-10-10-10-10---------|


(Bridge/Breakdown)
e|-------------------------------------------------------------------------|
B|-------------------------------------------------------------------------|
G|-------------------------------------------------------------------------|
D|---------0~--8~--5~--7-7-7-7-7~--7-7-7-7-7~------------------------------|
A|---------0~--8~--5~--7-7-7-7-7~--7-7-7-7-7~------------------------------|
E|---------0~--8~--5~--7-7-7-7-7~--7-7-7-7-7~------------------------------|
                       * * * *     * * * *

e|-------------------------------------------------------------------------|
B|-------------------------------------------------------------------------|
G|-------------------------------------------------------------------------|
D|---0-0-0-0-0--0-0-0-0-0--0-0-0-0---8-8-8-8-8--8-8-8-8-8--8-8-8-8-8-------|
A|---0-0-0-0-0--0-0-0-0-0--0-0-0-0---8-8-8-8-8--8-8-8-8-8--8-8-8-8-8-------|
E|---0-0-0-0-0--0-0-0-0-0--0-0-0-0---8-8-8-8-8--8-8-8-8-8--8-8-8-8-8-------|
     * * * * *  * * * * *  * * * *   * * * * *  * * * * *  * * * * *

e|-------------------------------------------------------------------------|
B|-------------------------------------------------------------------------|
G|-------------------------------------------------------------------------|
D|--5-5-5-5-5--5-5-5-5-5--5-5-5-5-5---7-7-7-7-7--7-7-7-7-7--7-7-7-7-7--7-7-|
A|--5-5-5-5-5--5-5-5-5-5--5-5-5-5-5---7-7-7-7-7--7-7-7-7-7--7-7-7-7-7--7-7-|
E|--5-5-5-5-5--5-5-5-5-5--5-5-5-5-5---7-7-7-7-7--7-7-7-7-7--7-7-7-7-7--7-7-|
    * * * * *  * * * * *  * * * * *   * * * * *  * * * * *  * * * * *

e|-------------------------------------------------------------------------|
B|-------------------------------------------------------------------------|
G|-------------------------------------------------------------------------|
D|--0-0-0-0~--8-8-8-8~--5-5-5-5~--7-7-7-7~---------------------------------|
A|--0-0-0-0~--8-8-8-8~--5-5-5-5~--7-7-7-7~---------------------------------|
E|--0-0-0-0~--8-8-8-8~--5-5-5-5~--7-7-7-7~---------------------------------|

Well thats as far as I've got in one sitting, havent quite figured out the muted chords 
at the end yet, havent really put much effort into if im honest aha!

This is my first tab also! Like ever :o Any improvements welcome, I've only focused on 
rhythm here :')

-SmAs
Tap to rate this tab
 
# A B C D E F G H I J K L M N O P Q R S T U V W X Y Z