Song name
# A B C D E F G H I J K L M N O P Q R S T U V W X Y Z

Yashin - One Step Closer tab

Hey,

this is my first tab, and i hope you like it :)
Iīve learned it from listening to this song so it could be different. Itīs very long and 
there are double riffs and so on so try to remember it.
Tuning is Drop C


Intro (5x)

D--x--x-----x---x--x---------|
A--x--x-----x---x--x---------|
F--x--x-----x---x--x---------|
C--1--0-----0---1--6---------|
G--1--0-----0---1--6---------|
C--1--0-----0---1--6---------|


The main riff in an easy form (4x)

D-----------------------------|
A-----------------------------|
F-----------------------------|
C-----------------------------|
G------5--7-------------------|
C----0--0---8-7---0-3---------|


Main Riff (4x)

D--x-x----x-x----x-x----x-x----|
A--x-x----x-x----x-x----x-x----|
F--x-x----x-x----x-x----x-x----|
C--0-12---0-14---8-7----0-3----|
G--0-12---0-14---8-7----0-3----|
C--0-12---0-14---8-7----0-3----|


Then the easy main riff again (4x)

Main Riff (4x)

Pre-Chorus (3x)

D--x-x--x-x-x---|
A--x-x--x-x-x---|
F--x-x--x-x-x---|
C--5-5--x-x-x---|
G--5-5--x-x-x---|
C--5-5--x-x-x---|


Chorus (2x)


D--x---xx--xx-xx---x-x-x-x--|
A--x---xx--xx-xx---x-x-x-x--|
F--x---xx--xx-xx---x-x-x-x--|
C--0---12--10-10---8-5-7-3--|
G--0---12--10-10---8-5-7-3--|
C--0---12--10-10---8-5-7-3--|


Easy Main Riff (8x)

Pre-Chorus (3x)

Chorus (4x)

BREAK! (1x)

D--x-x-x-x-x-x-x-x-x-|
A--x-x-x-x-x-x-x-x-x-|
F--x-x-x-x-x-x-x-x-x-|
C--1-1-1-1-1-1-1-1-0-|
G--1-1-1-1-1-1-1-1-0-|
C--1-1-1-1-1-1-1-1-0-|

Easy Main Riff (4x)

Bridge (4 times normal speed, after that 4 in slow speed)

D--x-x--x-x--x--x---x-x-x--|        / = Slide
A--x-x--x-x--x--x---x-x-x--|        \ = Slide back (to 1)
F--x-x--x-x--x--x---x-x-x--|
C--1-0--0-0--1-/3\-/1-0-6--|
G--1-0--0-0--1-/3\-/1-0-6--|
C--1-0--0-0--1-/3\-/1-0-6--|

Chorus (4x)

BREAK! (1x)

Bridge 2 (3x)

D--x-x--x-x--x--x---x-x-x--x-x--|
A--x-x--x-x--x--x---x-x-x--x-x--|
F--x-x--x-x--x--x---x-x-x--x-x--|
C--1-0--0-0--1-/3\-/1-0-6--0-3--|
G--1-0--0-0--1-/3\-/1-0-6--0-3--|
C--1-0--0-0--1-/3\-/1-0-6--0-3--|

Pre-Bridge 1

D--x-x-x--|
A--x-x-x--|
F--x-x-x--|
C--0-0-0--|
G--0-0-0--|
C--0-0-0--|

Bridge 1 (slow mode 4x)


wow... very long tab :D hope you enjoyed it and i helped you :) please rate fair
Tap to rate this tab
# A B C D E F G H I J K L M N O P Q R S T U V W X Y Z