Guitaretab - guitar tabs
Song name
# A B C D E F G H I J K L M N O P Q R S T U V W X Y Z

Yiruma - River Flows In You tab

0
 |skip |
e|-----|--------------------------------------|
b|-----|10-9-10-9-10----10--(10)--------------|
g|----9|------------9--(9)---7---6~-----------| x2
d|---7-|--------------------------------------|
a|-----|--------------------------------------|
e|-----|--------------------------------------|





(I)
e|--------------------------------------------|
b|---10--9-10---9-10---9-10-------------------|
g|--9--------9------9------9--7--6--7--9--6---|
d|-7----------------------------------------9-|
a|--------------------------------------------|
e|--------------------------------------------|

           | After (II), repeat these 3-note-progressions twice
e|---------|-----------------------------------|
b|---------|-----------------------------------|
g|---------|----6~--6-7-9~--7-6----------------|
d|-7-6-7~--|7-9-----------------9~-------------|
a|--------7|-----------------------------------|
e|---------|-----------------------------------|

e|--------------------------------------9--7~-|
b|---10--9-10---9-10---9-10-------------------|
g|--9--------9------9------9--7--6--7s9-------|
d|-7------------------------------------------|
a|--------------------------------------------|
e|--------------------------------------------|
[ Tab from: http://www.guitaretab.com/y/yiruma/104426.html ]
                 | After (II), repeat these 3-note-progressions twice
e|-7h9-7---------|-----------------------------|
b|-------10-9-10~|-----------------------------|
g|---------------|-----6~-6-7-9~-7---7-6-------|
d|---------------|-7-9-------------------9~----|
a|---------------|-----------------------------|
e|---------------|-----------------------------|




(II)

e|----------------------------------------------------9-10-12~-10-9-----|
b|-10-12-10-9-10----10-12-10-9-10----10-12-10-9-10-12---------------12--|
g|---------------9----------------9-------------------------------------| x2
d|----------------------------------------------------------------------|
a|----------------------------------------------------------------------|
e|----------------------------------------------------------------------|

            x2           | Skip hammer/pull at 2nd time
e|-----------------------|-----------------------------9-10-12~-10-9---|
b|-10-10h12p10-10-9-10---|-----10-10h12p10-10-9-10-12---------------12-|
g|---------------------9-|---------------------------------------------| x2 
d|-----------------------|---------------------------------------------|
a|-----------------------|---------------------------------------------|
e|-----------------------|---------------------------------------------|

|-------|
|-9-7---|
|-----9-|
|-------|
|-------|
|-------|


Repeat (I)
Repeat (II), with some fancy hammer-ons/pull-offs [figure it out]
Finish off with (I), without the repeats and with slower tempo

That's the basic melody [I hope]. As for the left-hand piano part... a 2nd guitar is needed.
Related for River Flows In You tab
×
Best way to learn
"River Flows In You"