Guitaretab - guitar tabs
Song name
# A B C D E F G H I J K L M N O P Q R S T U V W X Y Z

You Me At Six - Save It For The Bedroom tab

YOU ME AT SIX - SAVE IT FOR THE BEDROOM

All the tabs on here for this song are good, I couldnt find any that had Max's guitar in 
chorus on though, so I tabbed it up.
If your playing this in a band, turn the lead guitar down for the chorus, its only 
you dont want it to sound arse.
Also most people say its played in Dropped D which is fine but you can also, just as 
play it in standard.

Have fun. Rate and comment.
The video of this song is here.

http://uk.youtube.com/watch?v=4cidd5eBViA

I'LL DO EACH GUITAR SEPERATELY

GUITAR ONE: MAX

INTRO
E----------------------------------|
B----------------------------------|
G-66666666666666666666666666666666-
D-xxxxxxxxxxxxxxxxxxxxxxxxxxxxxxxx-
A-44444444444444444444444444444444-
E----------------------------------

VERSE PART ONE - Keep your hands to yourself...
E----------------------------------|
B----------------------------------|
G-66666666666666666666666666666666-
D-xxxxxxxxxxxxxxxxxxxxxxxxxxxxxxxx- x2
A-44444444444444444444444444444444-
E----------------------------------

VERSE PART TWO - Keep your lies to yourself...
E-------------------------------------------------------------|
B-------------------------------------------------------------|
G-66666666-1313131313131313-1111111111111111-1010101010101010-|
D-xxxxxxxx-x-x-x-x-x-x-x-x--x-x-x-x-x-x-x-x--x-x-x-x-x-x-x-x--| x2
A-44444444-1111111111111111-9-9-9-9-9-9-9-9--8-8-8-8-8-8-8-8--|
E-------------------------------------------------------------|

PRECHORUS - Well I sussed you good
E---------------------------------------------------------|
B---------------------------------------------------------|
G-88888888-1010101010101010-1111111111111111-1313-1313-13-|
D-xxxxxxxx-x-x-x-x-x-x-x-x--x-x-x-x-x-x-x-x--x-x--x-x--x--|
A-66666666-8-8-8-8-8-8-8-8--9-9-9-9-9-9-9-9--1111-1111-11-|
E---------------------------------------------------------|

E-------------------------------------------------|
B-------------------------------------------------|
G-66666666-88888888-1010101010101010-1313-1313-13-|
D-xxxxxxxx-xxxxxxxx-x-x-x-x-x-x-x-x--x-x--x-x--x--|
A-44444444-66666666-8-8-8-8-8-8-8-8--1111-1111-11-|
E-------------------------------------------------|

VERSE PART TWO - So havent you heard...
E-------------------------------------------------------------|
B-------------------------------------------------------------|
G-66666666-1313131313131313-1111111111111111-1010101010101010-|
D-xxxxxxxx-x-x-x-x-x-x-x-x--x-x-x-x-x-x-x-x--x-x-x-x-x-x-x-x--| x2
A-44444444-1111111111111111-9-9-9-9-9-9-9-9--8-8-8-8-8-8-8-8--|
E-------------------------------------------------------------|

PRECHORUS - Well I taste so good...
E---------------------------------------------------------|
B---------------------------------------------------------|
G-88888888-1010101010101010-1111111111111111-1313-1313-13-|
D-xxxxxxxx-x-x-x-x-x-x-x-x--x-x-x-x-x-x-x-x--x-x--x-x--x--|
A-66666666-8-8-8-8-8-8-8-8--9-9-9-9-9-9-9-9--1111-1111-11-|
E---------------------------------------------------------|

E-------------------------------------------------|
B-------------------------------------------------|
G-66666666-88888888-1010101010101010-1313-1313-13-|
D-xxxxxxxx-xxxxxxxx-x-x-x-x-x-x-x-x--x-x--x-x--x--|
A-44444444-66666666-8-8-8-8-8-8-8-8--1111-1111-11-|
E-------------------------------------------------|

CHORUS CLEAN EFFECT - LISTEN CAREFULLY
E------------------------------------------------------------------
B-1413141314131413141314131413141314131413141314131413141314131413-
G-1313131313131313131313131313131313131313131313131313131313131313-
D------------------------------------------------------------------|
A------------------------------------------------------------------|
E------------------------------------------------------------------|

E------------------------------------------------------------------
B-1613161316131613161316131613161316131613161316131613161316131613-
G-1313131313131313131313131313131313131313131313131313131313131313-
D------------------------------------------------------------------|
A------------------------------------------------------------------|
E------------------------------------------------------------------|

E-------------------------------------------------|
B-14-16-14-16-14-16-14-16-14-16-14-16-14-16-14-16-|
G-13-13-13-13-13-13-13-13-13-13-13-13-13-13-13-13-|
D-------------------------------------------------|
A-------------------------------------------------|
E-------------------------------------------------|

E------------------------------------------------------------------
B-1413161314131613141316131413161314131613141316131413161314131613-
G-1313131313131313131313131313131313131313131313131313131313131313-
D------------------------------------------------------------------|
A------------------------------------------------------------------|
E------------------------------------------------------------------|

VERSE TWO PART ONE - Go home and wash your jeans...
E-------------------------------------------------------|
B-------------------------------------------------------|
G-6-66666/11\10\8-88888-8/10\8\6-66666-6/8\6-6-66666666-|
D-x-xxxxx/x \x \x-xxxxx-x/x \x\x-xxxxx-x/x\x-x-66666666-| x2
A-4-44444/9 \8 \6-66666-6/8 \6\4-44444-4/6\4-4-44444444-|
E-------------------------------------------------------|
[ Tab from: http://www.guitaretab.com/y/you-me-at-six/113373.html ]
PRECHORUS - My winning streak...
E---------------------------------------------------------|
B---------------------------------------------------------|
G-88888888-1010101010101010-1111111111111111-1313-1313-13-|
D-xxxxxxxx-x-x-x-x-x-x-x-x--x-x-x-x-x-x-x-x--x-x--x-x--x--|
A-66666666-8-8-8-8-8-8-8-8--9-9-9-9-9-9-9-9--1111-1111-11-|
E---------------------------------------------------------|

E-------------------------------------------------|
B-------------------------------------------------|
G-66666666-88888888-1010101010101010-1313-1313-13-|
D-xxxxxxxx-xxxxxxxx-x-x-x-x-x-x-x-x--x-x--x-x--x--|
A-44444444-66666666-8-8-8-8-8-8-8-8--1111-1111-11-|
E-------------------------------------------------|

CHORUS CLEAN EFFECT - LISTEN CAREFULLY
E------------------------------------------------------------------
B-1413141314131413141314131413141314131413141314131413141314131413-
G-1313131313131313131313131313131313131313131313131313131313131313-
D------------------------------------------------------------------|
A------------------------------------------------------------------|
E------------------------------------------------------------------|

E------------------------------------------------------------------
B-1613161316131613161316131613161316131613161316131613161316131613-
G-1313131313131313131313131313131313131313131313131313131313131313-
D------------------------------------------------------------------|
A------------------------------------------------------------------|
E------------------------------------------------------------------|

E-------------------------------------------------|
B-14-16-14-16-14-16-14-16-14-16-14-16-14-16-14-16-|
G-13-13-13-13-13-13-13-13-13-13-13-13-13-13-13-13-|
D-------------------------------------------------|
A-------------------------------------------------|
E-------------------------------------------------|

E------------------------------------------------------------------
B-1413161314131613141316131413161314131613141316131413161314131613-
G-1313131313131313131313131313131313131313131313131313131313131313-
D------------------------------------------------------------------| x2
A------------------------------------------------------------------|
E------------------------------------------------------------------|

BRIDGE - And you whore...

E-----------------------------|
B-----------------------------|
G-6~~~~~-13-11-10-6~~~~~-6/8x-|
D-x~~~~~-x--x--x--x~~~~~-x/xx-|
A-4~~~~~-11-9--8--4~~~~~-4/6x-|
E-----------------------------|

OUTRO - Save it for the bedroom... PLAY AROUD WITH THESE TWO RIFFS, YOULL GET IT
E-------------------------------------------------|
B-14-13----14-13----14-13-14-13----14-13----16-13-|
G-------13-------13-------------13-------13-------|
D-------------------------------------------------|
A-------------------------------------------------|
E-------------------------------------------------|

E------------------------------------------------------------------
B-1414141414141414131313131313131316161616161616161313131313131313-
G-1313131313131313131313131313131313131313131313131313131313131313-
D------------------------------------------------------------------|
A------------------------------------------------------------------|
E------------------------------------------------------------------|

END ON
E--------
B-141414-
G-131313-
D--------|
A--------|
E--------|

CHRIS'S GUITAR - I'll just write the chord down and tell you when to change


VERSE - Keep your lies to yourself...
E-----
B-----
G-6---
D-6-4-
A-4-4-
E---2-

PRECHORUS PART ONE - Well I sussed you good...
E---
B---
G---
D-6-
A-6-
E-4-

PART TWO
You knew.....I........would..
E--------------------------------------|
B--------------------------------------|
G---66666666-55555555-66666666---------|
D---66666666-55555555-66666666-66-66-6-|
A---44444444-33333333-44444444-66-66-6-|
E------------------------------44-44-4-|

CHORUS
E-------------------------|
B-------------------------|
G-6-----------------------|
D-6-----4-----8-----4-----|
A-4-----4-----8-----4-----|
E-------2-----6-----2-----|

VERSE TWO PART ONE - Go home and wash your jeans...
E-------------------------------------------------------|
B-------------------------------------------------------|
G-6-66666/11\10\8-88888-8/10\8\6-66666-6/8\6-6-66666666-|
D-x-xxxxx/x \x \x-xxxxx-x/x \x\x-xxxxx-x/x\x-x-66666666-| x2
A-4-44444/9 \8 \6-66666-6/8 \6\4-44444-4/6\4-4-44444444-|
E-------------------------------------------------------|

BRIDGE - And you whore....
E----------|
B----------|
G-6~~~~~~~-
D-6~~~~~~~-
A-4~~~~~~~-
E----------

ENDING - AGAIN PLAY AROUD WIT THESE TWO RIFFS

DURING MAX's STRUMMING BIT
E-------------------------------------------------------------------|
B-------------------------------------------------------------------|
G-66666666666666666666666666666666----------------------------------|
D-66666666666666666666666666666666-44444444444444444444444444444444-|
A-44444444444444444444444444444444-44444444444444444444444444444444-|
E----------------------------------22222222222222222222222222222222-|

THEN OVER HIS PICKING BIT AFTER THAT
E---------------------|
B---------------------|
G-6~~~-6~~~-----------|
D-6~~~-6~~~-4~~~-4~~~-|
A-4~~~-4~~~-4~~~-4~~~-|
E-----------2~~~-2~~~-|

END ON
E-----
B-----
G-666-
D-666-
A-444-
E-----
Related for Save It For The Bedroom tab
Advertisement will be closed in 10 seconds