Song name
# A B C D E F G H I J K L M N O P Q R S T U V W X Y Z

You Me At Six - The Swarm tab

-------------------------------------------------------------------------------
                The Swarm  You Me At Six
-------------------------------------------------------------------------------
Tabbed by: Joe Mc
Email:

Tuning: Drop D

Intro & Verses

e|---------------------------------------------------------------------------------|
B|------6----------------8----------10---------------------------------------------|
G|------7----------------9----------10---------------------------------------------|
D|------x-----(x16)-----x-(x8)----x---(x8)-----------------------------------------|
A|------5----------------7----------8----------------------------------------------|
E|---------------------------------------------------------------------------------|

Chorus 1 & 2
e|---------------------------------------------|
B|---------------------------------------------|
G|----7---------3------------------------------|
D|----7-(x16)-3-(16)--3-----------0-----5------|
A|----5---------1--------3-(x24)---0-----5-----|
E|------------------------3-----------0-----5--|

e|-------------------------------------------------------------------------------|
B|-------------------------------------------------------------------------------|
G|----7---------3----------------------------------------------------------------|
D|----7-(x16)-3-(16)--3-----------0-----5-------3---50~-------------------------|
A|----5---------1--------3-(x24)---0-----5-------3---5--0---~--------------------|
E|------------------------3-----------0-----5-------3---5--0-~-------------------|


breakdown
e|-----------------------------------------------------------------------------|
B|-----------------------------------------------------------------------------|
G|-----------------------------------------------------------------------------|
D|-----------------------------------------------------------------------------|
A|-----------------------------------------------------------------------------| X?
E|------333-555-00000000-------------------------------------------------------|

Heavy Bridge
e|-----------------------------------------------------------------------------|
B|-----------------------------------------------------------------------------|
G|-----------------------------------------------------------------------------|
D|-----333-555-00000000--------------------------------------------------------| X?
A|-----333-555-00000000--------------------------------------------------------|
E|-----333-555-00000000--------------------------------------------------------|

Last Chorus
e|---------------------------------------------|
B|---------------------------------------------|
G|----7---------3------------------------------|
D|----7-(x16)-3-(16)--3-----------0-----5------|
A|----5---------1--------3-(x24)---0-----5-----|
E|------------------------3-----------0-----5--|





e|-------------------------------------------------------------------------------|
B|-------------------------------------------------------------------------------|
G|----7---------3----------------------------------------------------------------|
D|----7-(x16)-3-(16)--3-----------0-----5-------3---5----------------------------|
A|----5---------1--------3-(x16)---0-----5-------3---5---------------------------|
E|------------------------3-----------0-----5-------3---5------------------------|

e|-------------------------------------------------------------------------------|
B|-------------------------------------------------------------------------------|
G|----7---------3----------------------------------------------------------------|X2
D|----7-(x16)-3-(16)--3----------------------------------------------------------|
A|----5---------1--------3-(x32)-------------------------------------------------|
E|------------------------3------------------------------------------------------|
Outro
e|-----------------------------------------------------------------------------------|
B|-----------------------------------------------------------------------------------|
G|-----------------------------------------------------------------------------------|
D|-------3--5--0----3----5-----0-----------------------------------------------------|
A|-------3--5--0----3---5---0--------------------------------------------------------|
E|-------3--5--0-----3---5---0-------------------------------------------------------|


************************************

| /   slide up
| \   slide down
| h   hammer-on
| p   pull-off
| ~   vibrato
| +   harmonic
| x   Mute note
| b   Bend
| pb  Pre-bend
| br  Bend release
| pbr Pre-bend release
| brb Bend release bend

************************************
Tap to rate this tab
 
# A B C D E F G H I J K L M N O P Q R S T U V W X Y Z