Song name
# A B C D E F G H I J K L M N O P Q R S T U V W X Y Z

You Me At Six - Carpe Diem tab

I'm sure there are a few parts that I missed so once again, suggestions and corrections 
are appreciated :)

~ - let ring
* - palm-mute
h - hammer on string


INTRO:

  Guitar I
e|---------------------------------------|
B|--10101010101010101010101010101010-----|
G|--8-8-8-8-8-8-8-8-8-8-8-8-8-8-8-8------|
D|---------------------------------------|
A|---------------------------------------|
E|---------------------------------------|

  ^Play the whole intro.

  Guitar II
e|---------------------------------------|
B|---------------------------------------|
G|--3~-----------10~----------8~~~-------|x2
D|--3~-----------10~----------8~~~-------|
A|--1~-----------8~-----------6~~~-------|
E|---------------------------------------|

VERSE I:

  Guitar II - Bb
e|--------1-----------------1-----------------1-----------------1-----------|
B|--------------1-h3~~------------1~~---------------1-h3~~------------1~~---|
G|----3-------3---------3-------3---------3-------3---------3-------3-------|
D|--------------------------------------------------------------------------|
A|--1---1---1---------1---1---1---------1---1---1---------1---1---1---------|
E|--------------------------------------------------------------------------|
 |Guitar I                                                                  |
e|--1~~--------1~~----6~~---------------1~~--------1~~----6~~---------------|
B|--3~~--------1~~----8~~---------------3~~--------1~~----8~~---------------|
G|--3~~--------2~~----8~~---------------3~~--------2~~----8~~---------------|
D|--3~~--------3~~----8~~---------------3~~--------3~~----8~~---------------|
A|--1~~--------3~~----6~~---------------1~~--------3~~----6~~---------------|
E|-------------1~~---------------------------------1~~----------------------|


  Guitar II - Bb
e|--------1-----------------1-----------------1-----------------1-----------|
B|--------------1-h3~~------------1~~---------------1-h3~~------------1~~---|
G|----3-------3---------3-------3---------3-------3---------3-------3-------|
D|--------------------------------------------------------------------------|
A|--1---1---1---------1---1---1---------1---1---1---------1---1---1---------|
E|--------------------------------------------------------------------------|
 |Guitar I - Silent                                                         |
e|--------------------------------------------------------------------------|
B|--------------------------------------------------------------------------|
G|--------------------------------------------------------------------------|
D|--8888--8888888--8888888--8888888--8888888--8888888--8888888--8888888-----|
A|--------------------------------------------------------------------------|
E|--------------------------------------------------------------------------|
    ****  *******  *******  *******  *******  *******  *******  *******

   ^Just keep on tremolo picking the 8s until chorus


CHORUS:


  Guitar II
e|----------------------------------------|
B|----------------------------------------|
G|--33333333--1010101010101010--88888888--|x2
D|--33333333--1010101010101010--88888888--|
A|--11111111--8-8-8-8-8-8-8-8---66666666--|
E|----------------------------------------|_
 |Guitar I                                  |
e|--13------13------13------13------13----15|
B|-----11------11------11------11------11---|
G|------------------------------------------|x4
D|------------------------------------------|
A|------------------------------------------|
E|------------------------------------------|

Guitar I 4th time ends with:

e|-13----15--13~~-|
B|----11----------|



VERSE II:

  Guitar II - Bb
e|--------1-----------------1-----------------1-----------------1-----------|
B|--------------1~~---------------1~~---------------1-h3~~------------1~~---|
G|----3-------3---------3-------3---------3-------3---------3-------3-------|
D|--------------------------------------------------------------------------|
A|--1---1---1---------1---1---1---------1---1---1---------1---1---1---------|
E|--------------------------------------------------------------------------|
 |Guitar I                                                                  |
e|--1~~--------1~~----6~~---------------1~~--------1~~----6~~---------------|
B|--3~~--------1~~----8~~---------------3~~--------1~~----8~~---------------|
G|--3~~--------2~~----8~~---------------3~~--------2~~----8~~---------------|
D|--3~~--------3~~----8~~---------------3~~--------3~~----8~~---------------|
A|--1~~--------3~~----6~~---------------1~~--------3~~----6~~---------------|
E|-------------1~~---------------------------------1~~----------------------|


  Guitar II - Bb
e|--------1-----------------1-----------------1-----------------1-----------|
B|--------------1-h3~~------------1~~---------------1-h3~~------------1~~---|
G|----3-------3---------3-------3---------3-------3---------3-------3-------|
D|--------------------------------------------------------------------------|
A|--1---1---1---------1---1---1---------1---1---1---------1---1---1---------|
E|--------------------------------------------------------------------------|___________
 |Guitar I                                                                              |
e|--------------------------------------------------------------------------------------|
B|--------------------------------------------------------------------------------------|
G|----------10---------10---------10-------------------10---------10---------10---------|
D|--8888888----8--8888----8--8888----8--88888--8888888----8--8888----8--8888----8--88888|
A|--------------------------------------------------------------------------------------|
E|--------------------------------------------------------------------------------------|
    *******    *  ****    *  ****    *  *****  *******    *  ****    *  ****    *  *****


CHORUS: - Same as first


BRIDGE:

Guitar I & II

Cm-D#-Gm-F x2

Bb~~~

(There's a lead here but I can't figure it out at the moment)


CHORUS: - Same
Tap to rate this tab
# A B C D E F G H I J K L M N O P Q R S T U V W X Y Z