Song name
# A B C D E F G H I J K L M N O P Q R S T U V W X Y Z

Zebrahead - Two Wrongs Dont Make A Right But Three Rights Make A Left tab

Couldn't find the tabs anywhere, so made them myself. Don't have the solo and lead
guitar for verse yet, but that'll come soon!

Any questions? Mail me at Niels.verhoef@hotmail.com

Tuning: EADGBe (Might prefer to put a capo on your 3rd fret, at least I do.)

p . Pull off
h . Hammer on
s . Slide


Intro:


Guitar I
--------------------------------------|-------------------------------------|
---11---------------------------------|-13----------------------------------|
------3-3-8-3-3-7-3-3-8-3-3-12-3-10-3-|----3-3-8-3-3-7-3-3-8-3-3-12-3-10-3--|
--------------------------------------|-------------------------------------|
--------------------------------------|-------------------------------------|
--------------------------------------|-------------------------------------|

-----------------------------------------------------------------|
--11---------------------------------9p8-------9s11------13--15--|
-----3-3-8-3-3-7-3-3-8-3-3-12-3-10-3-----h10p8------8h11---------|
-----------------------------------------------------------------|
-----------------------------------------------------------------|
-----------------------------------------------------------------|


Guitar II (Step in after 2x first part of guitar I)
-------------------------------------------------|
-------------------------------------------------|
-------------------------------------------------|
--8--------4--------8-------5s6-6-6-5s6-6-6-5s6--|
--8-(x16)--4-(x16)--6-(x16)-5s6-6-6-5s6-6-6-5s6--|
--6--------6----------------3s4-4-4-3s4-4-4-3s4--|


Verse:


Guitar I
-------------------------|
-------------------------|
-------------------------|
--8-------6-------8------|
--8-------6-------6------|
--6-------4--------------|


Chorus:

Guitar I + II

---------------------------------------|
---------------------------------------|
---------------------------------------|
--8--------8--------5--------6---------|
--8-(x16)--6-(x16)--5-(x16)--6-(x16)---|
--6-----------------3--------4---------|


Thanks and good luck!
Tap to rate this tab
# A B C D E F G H I J K L M N O P Q R S T U V W X Y Z