Brain Stew tab ver. 2 with lyrics by Green Day - Easy chords and tabs for guitar

Green Day – Brain Stew tab ver. 2

intro, main riff & verse:



   Bb5    Ab5    G5   F#5   F5

e|-----------------------------|

h|-----------------------------|

g|-----------------------------|  repeat a couple of times!

d|-8-8----6-6----5-5--4-4--3-3-|

a|-8-8----6-6----5-5--4-4--3-3-|

E|-6-6----4-4----3-3--2-2--1-1-|



Chorus:

   Bb5             Ab5             G5              F#5     F5

e|-----x-x-x-x-x-x-----x-x-x-x-x-x-----x-x-x-x-x-x-----x-x-----|

h|-----x-x-x-x-x-x-----x-x-x-x-x-x-----x-x-x-x-x-x-----x-x-----|

g|-----x-x-x-x-x-x-----x-x-x-x-x-x-----x-x-x-x-x-x-----x-x-----| This should

d|-8-8-x-x-x-x-x-x-6-6-x-x-x-x-x-x-5-5-x-x-x-x-x-x-4-4-x-x-3-3-| also be

a|-8-8-x-x-x-x-x-x-6-6-x-x-x-x-x-x-5-5-x-x-x-x-x-x-4-4-x-x-3-3-| repeated!

E|-6-6-x-x-x-x-x-x-4-4-x-x-x-x-x-x-3-3-x-x-x-x-x-x-2-2-x-x-1-1-|



Bass goes:

intro & verse

   Bb     Ab      G    F#   F

g|-----------------------------|

d|-----------------------------|

a|-----------------------------|

E|-6-6----4-4----3-3--2-2--1-1-|



Chorus

   Bb              Ab              G               F#       F

g|-------------------------------------------------------------|

d|-------------------------------------------------------------|

a|-------------------------------------------------------------|

E|-6-6-x-x-x-x-x-x-4-4-x-x-x-x-x-x-3-3-x-x-x-x-x-x-2-2-x-x-1-1-|



Intro, verse & chorus plays the same rythm as guitar





In the end of the song somethings likes this comes in on the guitar:

                                            (it maybe is keyboard?)



e|------------------------------------|

h|-----4------4-------4----5-----7--4-|

g|-5-6----5-6----5-6----5----6--------|

d|------------------------------------| this is repeated a couple of times

a|------------------------------------|

E|------------------------------------|





the outro goes same as the intro (Bb5, Ab5, G5, F#5, F5 )

in a little slower rythm!



***************************************


Enjoy the tab!

Any questions, comments, suggestions or corrections?
Please rate this tab:
x1.0