Holiday - Frosty The Snowman tab

----------------------------------------------------------------------------
			  Frosty the Snowman
----------------------------------------------------------------------------

Tabbed by: Dave S. 
Email: prime-prine@hotmail.com

Tuning: Standard




Gtr I (E A D G B E)  
Gtr II (E A D G B E)  

  Q=150
  Gtr I
 
|----0------0----|----0-----0---|-----1------1--|-----0-----0---||----1------1----|----1-----1---|-----1------1--|-----1-----1---||----0------0----|----0-----0---|-----2------2--|-----0-----0---||----2------2----|----2-----2---|-----3------3--|-----2-----2---||-3--------------|-3------------|--------3------|-3-------------||-------3--------|-------3------|--1------------|--------3------|
| Gtr II|----------------|----8-----7-8-|-10--8--7------|-----------7-8-||-8--------------|-8------------|-----------10--|-8-------------||-------9-----10-|--------------|---------------|---------------||----------------|--------------|---------------|---------------||----------------|--------------|---------------|---------------||----------------|--------------|---------------|---------------|
|-----1------1--|----0-----0----|-----1-----1--|----1-----1--||-----1------1--|----1-----1----|-----1-----1--|----0-----0--||-----2------2--|----0-----0----|-----2-----2--|----0-----0--||-----3------3--|----2-----2----|-----3-----3--|----0-----0--||--------3------|-3-------------|--------3-----|-------2-----||--1------------|-------3-------|-1------------|-3-----------|
|
|-10--8--7------|----8----------|--------------|-------------||-----------10--|-8--------8-10-|-8------------|-8-----------||---------------|-------9-------|----10--9--7--|-------------||---------------|---------------|--------------|-------------||---------------|---------------|--------------|-------------||---------------|---------------|--------------|-------------|
|----0------0----|----0-----0---|-----1------1--|-----0-----0---||----1------1----|----1-----1---|-----1------1--|-----1-----1---||----0------0----|----0-----0---|-----2------2--|-----0-----0---||----2------2----|----2-----2---|-----3------3--|-----2-----2---||-3--------------|-3------------|--------3------|-3-------------||-------3--------|-------3------|--1------------|--------3------|
|
|----------------|----8-----7-8-|-10--8--7------|-----------7-8-||-8--------------|-8------------|-----------10--|-8-------------||-------9-----10-|--------------|---------------|---------------||----------------|--------------|---------------|---------------||----------------|--------------|---------------|---------------||----------------|--------------|---------------|---------------|
|-----1------1----|----0-----0----|-----1-----1--|-----0-----0--||-----1------1----|----1-----1----|-----1-----0--|-----1-----1--||-----2------2----|----0-----2----|-----2-----0--|-----0-----0--||-----3------3----|----2-----2----|-----3-----0--|-----2-----2--||--------3--------|-3-----0-------|--------------|--3-----------||--1--------------|---------------|-1------3-----|--------3-----|
|
|-10--8--7--------|----8----------|--------------|--------------||-----------10-10-|-8--------8-10-|-8------------|--------------||-----------------|-------9-------|----10--9--7--|--------------||-----------------|---------------|--------------|-10-----------||-----------------|---------------|--------------|--------------||-----------------|---------------|--------------|--------------|
|------1-----1--|-----0-----0--|------1------1--|----0-----0--||------1-----1--|-----0-----0--|------3------0--|----1-----1--||------2-----2--|-----0-----0--|------2------0--|----0-----0--||------3-----3--|-----2-----2--|--0----------0--|----2-----2--||---------3-----|--------2-----|----------------|-3-----------||--1------------|-0------------|---------3------|-------3-----|
|
|---------8--8--|-7---------7--|----------------|-------------||-10--10--------|----10--8-----|-----10--8------|-------------||---------------|--------------|-10---------10--|-9-----------||---------------|--------------|----------------|-------------||---------------|--------------|----------------|-------------||---------------|--------------|----------------|-------------|
|----3-----3--|----3-------3----|-----2------0--|----1-----1--||----0-----0--|----0-------0----|-----1------1--|----0-----0--||----0-----0--|----0-------0----|-----2------2--|----0-----0--||----0-----0--|----0-------0----|--0------------|----0-----0--||-------------|-----------------|--------0------|-------2-----||-3-----3-----|-3------3--------|---------------|-3-----------|
|
|-------------|-7--7--10--10-10-|-10--8--7------|-------------||-------8--8--|-----------------|-----------10--|-8-----------||-7--7--------|-----------------|---------------|-------------||-------------|-----------------|---------------|-------------||-------------|-----------------|---------------|-------------||-------------|-----------------|---------------|-------------|
|----0------0----|----0-----0---|-----1------1--|-----0-----0---||----1------1----|----1-----1---|-----1------1--|-----1-----1---||----0------0----|----0-----0---|-----2------2--|-----0-----0---||----2------2----|----2-----2---|-----3------3--|-----2-----2---||-3--------------|-3------------|--------3------|-3-------------||-------3--------|-------3------|--1------------|--------3------|
|
|----------------|----8-----7-8-|-10--8--7------|-----------7-8-||-8--------------|-8------------|-----------10--|-8-------------||-------9-----10-|--------------|---------------|---------------||----------------|--------------|---------------|---------------||----------------|--------------|---------------|---------------||----------------|--------------|---------------|---------------|
|-----1------1--|----0-----0----|-----1-----1--|----1-----1--||-----1------1--|----1-----1----|-----1-----1--|----0-----0--||-----2------2--|----0-----0----|-----2-----2--|----0-----0--||-----3------3--|----2-----2----|-----3-----3--|----0-----0--||--------3------|-3-------------|--------3-----|-------2-----||--1------------|-------3-------|-1------------|-3-----------|
|
|-10--8--7------|----8----------|--------------|-------------||-----------10--|-8--------8-10-|-8------------|-8-----------||---------------|-------9-------|----10--9--7--|-------------||---------------|---------------|--------------|-------------||---------------|---------------|--------------|-------------||---------------|---------------|--------------|-------------|
|----0------0----|----0-----0---|-----1------1--|-----0-----0---||----1------1----|----1-----1---|-----1------1--|-----1-----1---||----0------0----|----0-----0---|-----2------2--|-----0-----0---||----2------2----|----2-----2---|-----3------3--|-----2-----2---||-3--------------|-3------------|--------3------|-3-------------||-------3--------|-------3------|--1------------|--------3------|
|
|----------------|----8-----7-8-|-10--8--7------|-----------7-8-||-8--------------|-8------------|-----------10--|-8-------------||-------9-----10-|--------------|---------------|---------------||----------------|--------------|---------------|---------------||----------------|--------------|---------------|---------------||----------------|--------------|---------------|---------------|
|-----1------1----|----0-----0----|-----1-----1--|--0----||-----1------1----|----1-----1----|-----1-----0--|--1----||-----2------2----|----0-----2----|-----2-----0--|--0----||-----3------3----|----2-----2----|-----3-----0--|--2----||--------3--------|-3-----0-------|--------------|--3----||--1--------------|---------------|-1------3-----|--3----|
|
|-10--8--7--------|----8----------|--------------|-------||-----------10-10-|-8--------8-10-|-8------------|-------||-----------------|-------9-------|----10--9--7--|-------||-----------------|---------------|--------------|-10----||-----------------|---------------|--------------|-------||-----------------|---------------|--------------|-------|
| / slide up | \ slide down | h hammer-on | p pull-off | ~ vibrato | + harmonic | x Mute note ===========================================================================
Tap to rate this tab
 
# A B C D E F G H I J K L M N O P Q R S T U V W X Y Z