Manuel De Falla - Spanish Dance No 1 - La Vie Breve tab

Guitar 1 tuning: DADGBE
Guitar 2 tuning: EADGBE


 3/8

| | | | | | | | | | | |||-5----------------------------------------------------------------------|||-5----------------------------------------------------------------------|||-5----------------------------------------------------------------------|||-7-----------------------2-----------------------------------2----------|||-------------------2-----------------0-----------------2----------------|||-7-----------2-----------------2-----------------2-----------------2----|
||
||-0--------0-----0-----0-----0-----0-----0-----0-----0-----0-----0-----0-|||-1-----1-----1-----3-----3-----3-----1-----1-----1-----3-----3-----3----|||-2----------------------------------------------------------------------|||-2-----------------------2-----------------------------------2----------|||-0-----------------2-----------------0-----------------2----------------|||-------------0-----------------0-----------------0-----------------0----|
| | | | | | | | | | | |||------------------------------------------------------------------------|||-5--------------------7--9--10-7--9-----------------------7--9--10-7--9-|||--------------------------------------------------9---------------------|||------------------------------------------------------------------------|||-0----------------------------------------------------------------------|||------------------------------------------------------------------------|
||
||----------0-----0-----0-----0-----0-----0-----0-----0-----0-----0-----0-|||-1-----1-----------0-----3-----------------1-----------0-----3----------|||-------2-----------------------------2----------------------------------|||-------------2-----------------2-----------------2-----------------2----|||-0----------------------------------------------------------------------|||------------------------------------------------------------------------|
| | | | | h p | | | | | | |||-------------7--8--12----101210------10----8h10p8------8-----7h8p7------|||----7--9--10-------9-----------12----------------10----------------9----|||-9-----------------9-----------------11----9----------------------------|||-------------------9----------------------------------------------------|||------------------------------------------------------------------------|||------------------------------------------------------------------------|
||
||----0-----0-----0-----------------0--------------------0----------------|||-------1-----------------------0-----------------1-----------3-----0----|||-2--------------------------1--------2----------------------------------|||-------------2--------2--4--------------2-----2-----2-----2-----2-------|||------------------------------------------------------------------------|||-------------------0-----------------------0-----------------------0----|
| | | | | | | | | | | |||------------------------------------------------------------------------|||------------------------------------------------------------------------|||-9----------------------------------------------------------------------|||-10----------------------2-----------------------------------2----------|||-------------------2-----------------0-----------------2----------------|||-------------2-----------------2-----------------2-----------------2----|
||
||----------0-----0-----0-----0-----0-----0-----0-----0-----0-----0-----0-|||-------1-----1-----3-----3-----3-----1-----1-----1-----3-----3-----3----|||------------------------------------------------------------------------|||-------------------------2-----------------------------------2----------|||-0-----------------2-----------------0-----------------2----------------|||-------------0-----------------0-----------------0-----------------0----|
| | | | | | | | | | | |||------------------------------------------------------------------------|||-5--------------------7--9--10-7--9-----------------------7--9--10-7--9-|||-------------------------------------9----------------------------------|||------------------------------------------------------------------------|||-0----------------------------------------------------------------------|||------------------------------------------------------------------------|
||
||-------2--0-----0-----0--2--0-----0-----0--2--0-----0-----0--2--0-----0-|||-1-----1-----------3-----------------1-----------------3----------------|||-------------------4-----------------2-----------------4----------------|||-------------2-----------------2-----------------2-----------------2----|||-0----------------------------------------------------------------------|||------------------------------------------------------------------------|
| | | | | | | | | | | |||-------------7--8--12-------------------------------------5--7--8--5--7-|||----7--9--10-------------------------------8----------------------------|||-9-----------------------9----------------------------------------------|||------------------------------------------------------------------------|||------------------------------------------------------------------------|||------------------------------------------------------------------------|
||
||----0-----0-----0-----0-----0-----0-----0-----0-----0-----1-----1-----1-|||-1-----1-----1-----1-----1-----1-----1-----2-----2-----2-----2-----0----|||-2-----------------1-----------------0-----------0-----------0-----0----|||-------------------------------------------------------0----------------|||------------------------------------------------------------------------|||-------------------------------------------------3-----------------3----|
| | | | | | | | | | | |||----------------------5--7--8--5--7-----------------------1--0-----0-3p1-|||-8-----8-----------------------------8-----------8--------------3--------|||-------------------------------------------------------------------------|||-------------------------------------------------------------------------|||-------------------------------------------------------------------------|||-------------------------------------------------------------------------|
||
||----0-----0-----0-----1-----1-----1-----0-----0-----0-------------------|||-1-----1-----1-----1-----1-----0-----1-----1-----1-----3-----0----------|||-0-----------0-----------0-----0-----0-----------------------------2----|||-------------------0-----------------------------2-----3-----0----------|||-3-----------------------------------3-----------------------------3----|||-------------3-----------------3----------------------------------------|
| | | | | | | | | | | |||-0----------------------------------------------------------------------|||----------0-----0-----0-----0-----0-----0-----0-----0-----0-----0-----0-|||-------1-----1-----2-----2-----2-----1-----1-----1-----2-----2-----2----|||-------2-----2-----3-----3-----3-----2-----2-----2-----3-----3-----3----|||-------2-----2-----2-----2-----2-----2-----2-----2-----2-----2-----2----|||------------------------------------------------------------------------|
||
||------------------------------------------------------------------------|||------------------------------------------------------------------------|||-1----------------------------------------------------------------------|||-------------------------0--2-----0--------------------------0--2-----0-|||-2-----2--------------3--------3-----2-----------2--------3--------3----|||------------------------------------------------------------------------|
| | | | | | | | | | | |||------------------------------------------------------------------------|||----0-----0-----0-----0-----0-----0--2/5~~~---------------6--8--10-6--8-|||-1-----1-----1-----1-----1-----1----------------------------------------|||-2-----------------2----------------------------------------------------|||-2-----------------------------------0----------------------------------|||-------------------2----------------------------------------------------|
||
||----------------------------------------------0-----0-----0-----0-----0-|||------------------------------------------------------------------------|||-------------------------------------2-----------0-----------3----------|||-------------2-----------0-----------2-----------------------0----------|||-2-----------------------------------4-----4-----------1----------------|||-------------------------------------------------0-----------------0----|
| | | | | | | | | | | |||------------------------------------------------------------------------|||----------------------6--8--10-6--8-----------------------6-----------6-|||-9-----------------------------------9-----------------------9--7--9----|||------------------------------------------------------------------------|||------------------------------------------------------------------------|||------------------------------------------------------------------------|
||
||----0-----0-----0-----0-----0-----0-----0-----0-----0-----0-------------|||-------2-----------------------------------2----------------------------|||-2-----------0-----------3-----------2-----------0-----------2-----0----|||-------------------------0----------------------------------------------|||-0-----------------1-----------------0-----------------0-----4-----0----|||-------------0-----------------0-----------------0----------------------|
| | | | | | | | h p | | h p | |||----------------------------7--9--10-13----12131210----9-109-7----------|||-------------------6--8--10----------------------------------------10---|||-7-----9p7-6-7--9--------------------10---------------------------------|||-0----------------------------------------------------------------------|||------------------------------------------------------------------------|||------------------------------------------------------------------------|
||
||-------------------------------------1-----0----------------------------|||----------------------------0--2--3--------------3-----2-----0----------|||----------------------0--2-----------------------------------------2----|||-3---2p0-----0--2--3-----------------3-----2-----0----------------------|||-5--------4--------------------------------------------4-----2-----0----|||------------------------------------------------------------------------|
| | | | | | |||<12>--------------------------------------|||------------------------------------------|||-------------------------------0----------|||-------------------2-----2-----------0----|||-------------------3-----3-----6-----7----|||-------------------------------7-----6----|
||
||-8-----0--0-------------------------------|||-7----------------------------------------|||-9----------------------------------------|||-7-----------2----------------------------|||-0-----------------1-----------2--/--7----|||----------------0--------------------0----|
| | | | | | | |||-------------------10-12-14-16-17---------------|||----------10-12-13------------------------------|||----11-13---------------------------------------|||-14-------------------------------------------2-|||-------------------------------------------3----|||------------------------------------------------|
||
||-------------------------------5----------------|||-------------------------------5----------------|||-------------------------------5----------------|||-------------------------------7-----------2----|||------------------------------------<7>---------|||-------------------------------5----------------|
| | | | | | | | | | | |||------------------------------------------------------------------------|||----------------------------------------------------------------1-----1-|||----------------1-----2-----------------------------1-----2--------2----|||----3-----0-----------------------2--0--2-----0--------------2----------|||-5-----2-----------0--------3--3-----------2-----------0----------------|||-------------2-----------------------------------2----------------------|
||
||------------------------------------------------------------------------|||-------------------------------------------------------------------1----|||-------------1-----2-----------------------------1-----2----------------|||-3-----0-----------------------2-----3-----0----------------------------|||------------------------<7>---------------------------------------------|||------------------------------------------------------------------------|
| | | | | | | | | | | |||----0-----------------------------------------------0-------------------|||----------------1-------------------------------------------------------|||-0--------2-----------------2-----------------------------2-------------|||-------3-----2--------3-----------0-----3-----------------------------2-|||-------------------5-----3-----2-----0--------2--------0--------3--3----|||-------------------------------------------6-----2----------------------|
||
||-0----------------------------------------------------------------------|||-------------1----------------------------------------------------------|||-------2-----------------2----------------------------------------------|||-------------------3-----------0-----3-----------2-----------------2----|||-------------------------------------------2-----------0----<7>---------|||------------------------------------------------------------------------|
| | | | | | | | | | | |||----------------------------------------------------------------------0-|||----------------------------------------------------------------1--1----|||----------------1-----2-----------------------------1-----2-------------|||----3-----0-----------------------2-----3-----0--------------2----------|||-5-----2-----------0--------3--3-----5-----2-----------0----------------|||-------------2-----------------------------------2----------------------|
||
||-------------------------------------------------------------------0----|||------------------------------------------------------------------------|||-------------1-----2-----------------------------1-----2----------------|||-3-----0-----------------------2-----3-----0----------------------------|||------------------------<7>---------------------------------------------|||------------------------------------------------------------------------|
| | | | | | | | | | | |||----4-----------0-------------------------------------------------------|||-0--------1-----------------0-----------------------------1-------------|||-------2-----0--------2-----------------2-----------0-----------------0-|||-------------------3-----2--------3-----------0-----------------2--2----|||-------------------------------5-----3-----2-----------3----------------|||-------------------------------------------------5----------------------|
||
||-3-----------0----------------------------------------------------------|||-------1-----------------1----------------------------------------------|||-------------------2-----------------2-----------0----------<12>---0----|||-------------------------------3-----------0----------------------------|||-------------------------------------------------------3----------------|||------------------------------------------------------------------------|
| | | | | | | | | | | |||----------------------------------------------------------0-------------|||----------------0-----1-----------------------------4-----------------0-|||----2-----------------------------0-----2-----------------------1--1----|||-3-----0--3-----------------2--2-----3-----0--3-------------------------|||-------------------3-----------------------------2-----------2----------|||-------------5-----------------------------------------2----------------|
||
||------------------------------------------------------------------------|||-------------0-----1-----------------------------3--/--5-----------0----|||-2----------------------<12>---0-----2-----------------------1----------|||-------3-----------------------------------3----------------------------|||------------------------------------------------------------------------|||------------------------------------------------------------------------|
| | | | | | | | | | | |||----------------------0-----------------------------------0-------------|||----1-----------4-----------------0-----1-----------4-------------------|||-2--------2-----------------1--1-----2--------2--------------2h4p2-1----|||-------3-----------------------------------3-----------------3-----2----|||-------------2-----------2-----------------------2----------------------|||-------------------2-----------------------------------2----------------|
||
||-------------------0-----------------------------------0----------------|||-1-----------4-----------------0-----1-----------4----------------------|||-------2-----------------1-----------------2-----------------2-----1----|||-------------------------------------------------------------3-----2----|||-------------------------------------------------------------5-----2----|||------------------------------------------------------------------------|
| | | | | | | |||----------------------------------------0--2--4-|||-------------------------------0--1--3----------|||-2h4p2-1--2h4p2-1--------1--2-------------------|||-3-----2--3-----2--2--4-------------------------|||------------------------------------------------|||------------------------------------------------|
||
||------------------------------------------------|||------------------------------------------------|||-2-----1-----2-----1----------------------------|||-3-----2-----3-----2-----2-----1-----0----------|||-5-----2-----5-----2-----------------------3----|||------------------------------------------------|
| | | | | | |||-5----------------------------------------|||------------------------------------------|||------------------------------------------|||-------------------------------2----------|||-0-----------------------2----------------|||-------------------2-----------------2----|
||
||----------------0-----0-----0-----0-----0-|||-------------1-----1-----3-----3-----3----|||------------------------------------------|||-------------------------------2----------|||-2-----0-----------------2----------------|||-------------0-----------------------0----|
| | | | | | | | | | | |||------------------------------------------------------------------------|||-------------------------------------5--------------------7--9--10-7--9-|||------------------------------------------------------------------------|||-------------------------2----------------------------------------------|||-0-----------------2-----------------0----------------------------------|||-------------2-----------------2----------------------------------------|
||
||----0-----0-----0-----0-----0-----0-----------0-----0-----0-----0-----0-|||-1-----1-----1-----3-----3-----3-----1-----1-----------0-----3----------|||-------------------------------------2----------------------------------|||-------------------------2-----------------------2-----------------2----|||-0-----------------2----------------------------------------------------|||-------------0-----------------0----------------------------------------|
| | | | | | | | | | | h p |||-------------------------------------------------7--8--12----101210-----|||----------------------7--9--10-7--9-----7--9--10-------------------10---|||-9-----------------------------------9-----------------9----------------|||------------------------------------------------------------------------|||------------------------------------------------------------------------|||------------------------------------------------------------------------|
||
||----0-----0-----0-----0-----0-----0--------------------5----------------|||-------1-----------0-----3-----------1-----0-----------7----------------|||-2-----------------------------------------------2-----5-----------2----|||-------------2-----------------2-----------------------0----------------|||------------------------------------------------------------------------|||------------------------------------------------------------------------|
| | | | | | | |||-8-----------------------------0----------------|||-5-----------------------------------0---<12>---|||-5-----------------------------------0----------|||-7-----------7--\--4-----7----------------------|||-0----------------------------------------------|||------------------------------------------------|
||
||-------------------0----------------------------|||-------------0--1--------3h5p3-1-----0----------|||-------1--2-------------------------------------|||-2--4-------------------------------------------|||------------------------------------------------|||------------------------------------------------|
| | | | | | |||----------------0-------------------------|||-0--------2--4-----2--4--0----------------|||------------------------------------------|||------------------------------------------|||------------------------------------------|||------------------------------------------|
||
||------------------------------------------|||----0-----0-----0-----0-----0-----0-----0-|||-------------2-----------------1----------|||-------4-----------------2----------------|||-2-----------------2-----------------2----|||------------------------------------------|
| | | | | | | | | | | |||----------0-----------------0--2--4--7-----5h7p5------------------------|||----2--4-----2--4--0--2--4-----------------------5--/--8----------------|||------------------------------------------------------------------------|||-------------------------------------------------------------------2----|||------------------------------------------------------------------------|||------------------------------------------------------------------------|
||
||-------------------------------------0----------------------------------|||----0-----0-----0--------------------2----------------------------------|||-------2-----------0-----------------0--------------------------------0-|||-4-----------------------4-----2-----2-----------2-----------1--2--4----|||-------------2-----------------------0-----------------2--4-------------|||-------------------------------------------------------0----------------|
| | | | | | | | | | | |||-------------------------2-----------------------2--0-----------------2-|||-------------0--------------------------------2--------4-----0--2--4----|||-------------------3--------------------1--3----------------------------|||-------2-----------------------4----------------------------------------|||-4----------------------------------------------------------------------|||-------------------2----------------------------------------------------|
||
||------------------------------------------------------------------------|||------------------------------------------------------------------------|||-4-----2h4p2-0-----------------------3----------------------------------|||-------------------4-----------------------------------------4----------|||-------------------------------------------4-----------2-----------2----|||-------------------------------------------------2----------------------|
| | | | | | | | | | | |||-7-----5h7p5-------------7--------------------7--12-10-9----------------|||-------------7-----9--------------------7--9-----------------10---------|||-------------------------------9----------------------------------------|||------------------------------------------------------------------<7>---|||------------------------------------------------------------------------|||------------------------------------------------------------------------|
||
||-------------------------------------0----------------------------------|||----------------------------------0--------3h5p3-1----------------------|||-------------4--2--1-----------1-----------------------2----------------|||-------1--4--------------2--4-----------------------------------------2-|||----4--------------------------------------------------------0--2--4----|||------------------------------------------------------------------------|
| | | | | | | | | | | |||-------------------10----8h10p8---------------8--10----8-----6h8p6------|||-------------10-8--7-----------10----8--10-11----------5-----------8----|||----------9-----------------------------------------10------------------|||----9--11----------7-----------------------------------5----------------|||------------------------------------------------------------------------|||------------------------------------------------------------------------|
||
||------------------------------------------------------------------------|||-------------------------------3--1-------------------------------------|||-2-----0h2p0----------------2--------3--------------------------0--5--3-|||-------------2-----0--2--4-----------------0-----------------2----------|||-------------------------------------------------------3--5-------------|||-------------------------------------------------3----------------------|
| | | | | | | | | | | |||-------------8-----6-----5h6p5----------------5--6----------------------|||----8--10-11-------3-----------6-----5--6--8----------------------------|||-10-------------9-----------------------------------7--6-----3h5p3-2----|||-------------------3-----------------------------------------0-----2----|||------------------------------------------------------------------------|||------------------------------------------------------------------------|
||
||------------------------------------------------------------<12>--------|||------------------------------------------------------------------------|||-2-----------------------------3--2--0----------------------<12>--------|||-------------------------0--3-------------------------------<12>--------|||-------3-----------1--3--------------------1-----------0-----------0----|||-------------1-----------------------------------0----------------------|
| | | | | | | | | | | |||-------------------------0-----------0-----------0-----0----------------|||-------------------------3-----------3-----------3----------------------|||-3h5p3-2-----3h5p3-2-----0-----------0-----------0----------------------|||-0-----2-----0-----2-----0-----2-----0-----2-----0-----2----------------|||-------------------------------0-----------0-----------0----------------|||------------------------------------------------------------------------|
||
||<12>--------<12>---------------------------------------------0----------|||------------------------------------------------------------------------|||<12>--------<12>---------------------------------------------2----------|||<12>--------<12>---------------------------------------------2----------|||-------0-----------0-----1h3p1-0-----1h3p1-0-----1h3p1-0-----------0----|||------------------------------------------------------------------------|
| | | | | | | |||------------------------------------------------|||------------------------------------------------|||------------------------------------------------|||------------------------------------------------|||----------------------------------------------7-|||------------------------------------------------|
||
||-0-----------0-----------0-----------0----------|||------------------------------------------------|||-2-----------2-----------2-----------2----------|||-2-----------2-----------2-----------2----------|||-------0-----------0-----------0-----------0----|||------------------------------------------------|
| | | | | | |||------------------------------------------|||------------------------------------------|||------------------------------------------|||------------------------------------------|||----8-----10----8--7-----5-----7--8--7--8-|||------------------------------------------|
||
||------------------------------------------|||-3-----------3-----------3-----------3----|||-2-----------3-----------3-----------3----|||-0-----------2-----------2-----------2----|||-------0-----------0-----------0----------|||------------------------------------------|
| | | | | | | |||------------------------------------------------|||------------------------------------------------|||------------------------------------------------|||------------------------------------------------|||-10-------8--7--------5--7--8--7--8--5--------7-|||------------------------------------------------|
||
||------------------------------------------------|||-------3-----------3-----------3-----------3----|||-------3-----------3-----------3-----------3----|||-------2-----------2-----------2-----------2----|||-0-----------0-----------0-----------0----------|||------------------------------------------------|
| | | | | | |||------------------------------------------|||------------------------------------------|||------------------------------------------|||------------------------------------------|||-5--------7--5----------------------------|||-------------------8h10p8-7---------------|
||
||-------------------------------0----------|||-------3-----------3----------------------|||-------3-----------3-----------2----------|||-------2-----------2-----------2----------|||-0-----------0-----------0-----------0----|||------------------------------------------|
| | | | | | | |||-------0-----1-----3--------1--0-----------0--1-|||----------------------------------------3-------|||-------------------0----------------------------|||-------2-----3-----------------2-----------2----|||------------------------------------------------|||------------------------------------------------|
||
||-0-----------1-----------0-----------0----------|||-------------3-----------1-----------10---------|||-2-----------2-----------0-----------10---------|||-2-----------3-----------2----------------------|||-------0-----------0-----------0-----------0----|||------------------------------------------------|
| | | | | | |||-0--1--3--------1--0-----------0--1--0--1-|||-------------------------3----------------|||-------0----------------------------------|||-2-----------------2-----0-----2-----2----|||------------------------------------------|||------------------------------------------|
||
||-6-----------0-----------5-----------6----|||-6-----------2-----------6-----------8----|||-7-----------0-----------7-----------7----|||-8-----------2-----------7-----------8----|||-------0-----------0-----------0----------|||------------------------------------------|
| | | | | | | |||----------0-----------0-------------------------|||-3-----------3-----------3----------------------|||-------------------------------3h5p3-2----------|||-0-----------0-----------0-----5----------------|||-------------------------------------0----------|||------------------------------------------------|
||
||-------5-----------6-----------3-----------0----|||-------6-----------8-----------3----------------|||-------7-----------9-----------0-----------2----|||-------7-----------8-----------0-----------2----|||-0-----------0-----------0-----------2----------|||------------------------------------------------|
| | | | | | |||-----------------------------------2------|||----------------------------------3-------|||-------------------0-------------2--------|||--------------------------------4---------|||-------------0-----------------5----------|||-------------------------0----------------|
||
||-------0----------------------------------|||----------------------------------3--1----|||-------2-----2-----3-----5----------------|||-------2-----------5-----4----------------|||-2----------------------------------------|||------------------------------------------|
| | | | | | | | | | | |||-------3---------------------2-------------3---------------------2-2----|||-------4--------------------3--------------4--------------------3-------|||-------2-------------------2---------------2-------------------2---2----|||--------------------------4-----------------------------------4---------|||-0-----------0-----------5-----------0-----------0-----------5----------|||-------------------0-----------------------------------0----------------|
||
||------------------------------------------------------------------------|||----------------------------3--1----------------------------------------|||----3--2--0--2--3--5--------------------3--2--0--2--3--5--------4--5----|||-------------------4-----------------------------------4----------------|||------------------------------------------------------------------------|||------------------------------------------------------------------------|
| | | | | | | |||------------------------------------------------|||-------3-----------------3----------------------|||-0-----5-----2-----3-----------------------0----|||-5-----4-----0-----5----------------------------|||------------------------------------------------|||-0-----------------5-----------0-----5----------|
||
||-------------1----------------------------------|||----3--4-----------6--4--3----------------------|||------------------------------------------------|||-------------------------------------------2----|||------------------------------------------------|||------------------------------------------------|
| | | | | | |||------------------------------------------|||------------------------------------------|||-2-----3--------2--0--------2--0--2--0--2-|||-------------------------0----------------|||-------4----------------------------------|||------------------------------------------|
||
||------------------------------------------|||------------------------------------------|||------------------------------------------|||-0-----------2-----------------2----------|||-------0-----------------1----------------|||-------------------0-----------------0----|
| | | | | | | |||------------------------------------------------|||------------------------------------------------|||-3--------2--0--------2--0-----0--2--3--------2-|||-------------------0--------3-------------------|||-4-----------------------------------4----------|||------------------------------------------------|
||
||------------------------------------------------|||------------------------------------------------|||------------------------------------------------|||-------2-----------------2-----------------2----|||-0-----------------1-----------------0----------|||-------------0-----------------0----------------|
| | | | | | |||------------------------------------------|||------------------------------------------|||-0----------------------------------------|||----------3--2-----3-----4----------------|||------------------------------------------|||-------------------------0----------------|
||
||------------------------------------------|||------------------------------------------|||-------------2-----------------------2----|||-------------------------0----------------|||-------0-----------0-----------0----------|||-0----------------------------------------|
| | | | | | | | | | | |||-------0-----2-----3--------2--0--------2--0--2--0--2-------------------|||-------------------------------2-----------2-----2-----3----------------|||-------0-----2-----4-----------------------------------2----------------|||-------------------------------------------------------0----------------|||-------------------------------------------------------0----------------|||------------------------------------------------------------------------|
|| 32nd notes||----------------------------5-----------------5-----------------------2-|||---------------------------------------------------------------------3--|||----------------------2--2--------2-----2--2--------2---------------2---|||------<7>--------------------------------------------------------0-4----|||<12>--------<12>---0----------<12>---0----------<12>------------0-------|||-------------------------------------------------------------5-2--------|
| | | | | | | | | | | |||-------12----14----15-------14-12-------14-12-14-12-14-10----------2-----|||-------------------------------------------------------7------------3----|||-------12----14----16-------14-12----------12----12----7-------------2---|||----------------------------------------------------------------------0--|||-------------------------------------------------------5---------------0-|||-------------------------------------------------------------------------|
||
||-7--------------------5----<5>----5-----5----<5>----5--10----10----10---|||-------------------------------------------------------7-----7-----7----|||-------------------------------------------------------7-----7-----7----|||------------------------<7>---<7>---------<7>---<7>----0-----0-----0----|||------------------<12>--------------<12>---------------0-----0-----0----|||------------------------------------------------------------------------|
| | | | | | | |||-------5-----2-----4--------2--0-----------0--2-|||-------6-----3-----3--------------------3-------|||------------------------------------------------|||-------7-----4-----2-----------------2----------|||------------------------------------------------|||-0----------------------------------------------|
||
||-10---------------------------------------------|||-7-----------------------3-----5-----7--------5-|||-7-----------------------4-----6-----7--------6-|||-0----------------------------------------------|||-0-----------------2----------------------------|||-------------------0----------------------------|
| | | | | | |||-5--2--4--------2--0-----------0--2--5--2-|||-------3--------------------3-------------|||------------------------------------------|||-------2-----------------2----------------|||------------------------------------------|||------------------------------------------|
||
||------------------------------------------|||-3-----------3-----5-----7--------5--3----|||-4-----------4-----6-----7--------6--4----|||------------------------------------------|||-------2----------------------------------|||-------0----------------------------------|
| | | | | | | | | | | |||-4--2--0--2--5--2--4--2--0--2--5--2--4--2--0-----------7--8--10-12-14-16-|||-3-----------------3-----------------3--------7--9--10-------------------|||-------------------------------------------------------------------------|||-2-----------------2-----------------2-----------------------------------|||-------------------------------------------------------------------------|||-------------------------------------------------------------------------|
||
||-------0-----------0-----0-----7-----7-----------0----------------------|||-------0-----6-----9-----10----7-----9-----------------3-----2-----0----|||-------7-----6-----7-----11----7-----7----------------------------------|||-------6-----7-----9-----11----------9-----------------0----------------|||-2-----------------------------------7-----------7-----------4-----2----|||-0-----------------------------------7----------------------------------|
| | | | | | | | | | | |||-17---------------------------------------------------------------------|||------------------------------------------------------------------------|||------------------------------------------------------------------------|||----------2-----2-----2-----2-----2-----2-----2-----2-----2-----2-----2-|||-0-----------------2-----------------2-----------------2----------------|||-------------2-----------------2-----------------2-----------------2----|
||
||------------------------------------------------------------------------|||-1----------------------------------------------------------------------|||-2----------------------------------------------------------------------|||-------2-----------0-----2-----0-----------2-----------0-----2-----0----|||-0-----------3-----------------------3-----------3----------------------|||------------------------------------------------------------------------|
| | | | | | | | | | | |||------------------------------------------------------------------------|||-5--------------------7--9--10-7--9-----------------------7--9--10-7--9-|||-------------------------------------9----------------------------------|||------------------------------------------------------------------------|||-0----------------------------------------------------------------------|||------------------------------------------------------------------------|
||
||-------0-----------------0-----------------0-----------------0----------|||-------------1-----3-----------3-----1-----------1-----3-----------3----|||-------------------4-----------------2-----------------4----------------|||----------2-----2-----2-----2-----2-----2-----2-----2-----2-----2-----2-|||-3----------------------------------------------------------------------|||------------------------------------------------------------------------|
| | | | | h p | | | | | | |||-------------7--8--12----101210------10----8h10p8------8-----7h8p7------|||----7--9--10-------9-----------12----------------10----------------9----|||-9-----------------9-----------------11----9----------------------------|||-------------------9----------------------------------------------------|||------------------------------------------------------------------------|||------------------------------------------------------------------------|
||
||----0-----------------------------0--------------------0----------------|||-1-----------------0-----------0-----------------1-----------3-----0----|||-2--------------------------1--------2----------------------------------|||-------2--2-----------2--4--------------2-----2-----2-----2-----2-----2-|||------------------------------------------------------------------------|||-------------0-----------------------------0-----------------------0----|
| | | | | | | | | | | |||------------------------------------------------------------------------|||------------------------------------------------------------------------|||-9----------------------------------------------------------------------|||-10-------2-----2-----2-----2-----2-----2-----2-----2-----2-----2-----2-|||-------------------2-----------------2-----------------2----------------|||-------------2-----------------2-----------------2-----------------2----|
||
||------------------------------------------------------------------------|||------------------------------------------------------------------------|||------------------------------------------------------------------------|||-------2-----------0-----2-----0-----------2-----------0-----2-----0----|||-0-----------3-----------------------3-----------3----------------------|||------------------------------------------------------------------------|
| | | | | | | | | | | |||------------------------------------------------------------------------|||-5--------------------7--9--10-7--9-----------------------7--9--10-7--9-|||-------------------------------------9----------------------------------|||------------------------------------------------------------------------|||-0----------------------------------------------------------------------|||------------------------------------------------------------------------|
||
||-------2--0-----0-----0--2--0-----0-----0--2--0-----0-----0--2--0-----0-|||-------1-----------3-----------------1-----------------3----------------|||-------------------4-----------------2-----------------4----------------|||-------------2-----------------2-----------------2-----------------2----|||-3----------------------------------------------------------------------|||------------------------------------------------------------------------|
| | | | | | | | | | | |||-------------7--8--12-------------------------------------5--7--8--5--7-|||----7--9--10-------------------------------8----------------------------|||-9-----------------------9----------------------------------------------|||------------------------------------------------------------------------|||------------------------------------------------------------------------|||------------------------------------------------------------------------|
||
||----0-----0-----0-----0-----0-----0-----0-----0-----0--1-----3-----1----|||-1-----1-----1-----1-----1-----1-----------------0-----3-----3-----3----|||-2-----------------1-----------------------0-----4--------0-----0-----0-|||------------------------------------------------------------------------|||-------------------------------------3----------------------------------|||-------------------------------------3----------------------------------|
| | | | | | | | | | | | p||----------------------5--7--8--5--7---------------------------------------|||-8-----8-----------------------------8-----------8------------------------|||----------------------------------------------------------10-9-----9-1210-|||-------------------------------------------------9--------------12--------|||-------------------------------------------------10-----------------------|||--------------------------------------------------------------------------|
||
||-0--------0-----0--1-----3-----1-----0-----0-----0----------------------|||-1--------1--0-----3-----3-----3-----1-----1-----1-----------0----------|||----0--0-----4--------0-----0-----0-----0-----0--------------------2----|||----------------------------------------------------2--0----------------|||-------------------------------------------------------------------3----|||-------------------------------------------------------1----------------|
| | | | | | | | | | | |||-0----------------------------------------------------------------------|||-------------------------0-----------------0-----------------0----------|||-------------1-----2-----------2-----1-----------1-----2-----------2----|||-------------2-----3-----------3-----2-----------2-----2-----------2----|||----------------2-----2-----2-----2-----2-----2-----2-----2-----2-----2-|||------------------------------------------------------------------------|
||
||--------------------------0--0--------------------------------0--0------|||---------031-0-----------3--3--3-------------031-0-----------3--3--3----|||-1------1-------------2---------------------1-------------2-------------|||-------2-----------3-----------------------2-----------3----------------|||-2----------------------------------------------------------------------|||------------------------------------------------------------------------|
| | | | | | | | | | | |||------------------------------------------------------------------------|||-------0-----------3--------------------------------------6--8--10-6--8-|||-1-----------------1-----------------------9----------------------------|||-2-----------2-----2----------------------------------------------------|||----2-----2--------2----------------------------------------------------|||------------------------------------------------------------------------|
|| 32nd notes||-------------------0--------------------------0-----0-----0-----0-----0-|||-------0------0-1-3-31-0------------------------------------------------|||-----------1-2----------2-0----------------------0-----0-----3-----3----|||--------2-4----------------32-0------------------------------0----------|||-------------------------------32-0--------4-----------1----------------|||-----------------------------------310-----------0-----------------0----|
| | | | | | | | | | | |||------------------------------------------------------------------------|||----------------------6--8--10-6--8-----------------------6-----------6-|||-9-----------------------------------9-----------------------9--7--9----|||------------------------------------------------------------------------|||------------------------------------------------------------------------|||------------------------------------------------------------------------|
||
||----0-----0-----0-----0-----0-----0-----0-----0-----0-----0-------------|||------------------------------------------------------------------------|||-2-----------0-----------3-----------2-----------3-----------2-----0----|||-------------------------0----------------------------------------------|||-0-----4-----------1-----------------0-----4-----------0-----4-----0----|||-------------0-----------------0-----------------0----------------------|
| | | | | | | | h p | | h p | |||-------------------------------9--10-13----12131210----9-109-7----------|||----------------------8--10-12-------------------------------------10---|||-7---9p7--6--7--9--10---------------------------------------------------|||------------------------------------------------------------------------|||------------------------------------------------------------------------|||------------------------------------------------------------------------|
||
||-------------------------------------1-----0----------------------------|||----------------------------0--2--3--------------3-----2-----0----------|||----------------------0--2-----------------------------------------2----|||-3---2p0-----0--2--3-----------------3-----2-----0----------------------|||-5--------4--------------------------------------------4-----2-----0----|||------------------------------------------------------------------------|
| | | | | | | |||<12>---------------3----------------------------|||-------------------1----------------------------|||------------------------------------------------|||-------------------2-----------------0--1--2--4-|||-------------------1----------------------------|||------------------------------------------------|
||
||-8-----0-----------------------0-----4----------|||-7-----------------------------------0----------|||-9----------------------------------------------|||-7--------2--------------2--2--------2----------|||-0----------------------------------------------|||-------------0----------------------------------|
| | | | | | |||---------------0--3--1--0-----12-12-12----|||------0--1--3-----------------------------|||-0--2--------------------------9-----9----|||------------------------------------------|||------------------------------------------|||------------------------------------------|
||
||-------------------------------0-----0----|||-------------------------------1----------|||------------------------------------------|||-------------------------------4--2-------|||-------------------------------0----------|||------------------------------------------|
| | | | | | | |||-12-12-12-12-12-12-12----------------------10-12-|||-------------------8--------------10-12-13-------|||-9-----9-----9-----9--------11-13----------------|||----------------------12h14----------------------|||-------------------11----------------------------|||-------------------------------------------------|
||
||-0-----0-----3-----7----------------------------|||-2-----------4-----7----------------------------|||-0-----------2-----7----------------------------|||----2--------------9----------------------------|||-1-----------2-----7----------------------------|||-------------------0----------------------------|
| | | | | | |||-14-16-17---------------------------------|||------------------------------------------|||------------------------------------------|||------------------------------------------|||-------------------7-----8-----5-----8----|||------------------------------------------|
||
||------------------------------------------|||-------2-----------------0--0-------------|||-------2-----------------2--2-------------|||-2-----------------------3--3-------------|||-------0-----------------5--5-------------|||-0----------------------------------------|
| | | | | | | |||-------------------------------8-----12---------|||-------------------------10----------10---------|||-------------7-----10----------------9----------|||-7-----9----------------------------------------|||------------------------------------------------|||------------------------------------------------|
||
||-------------------------------------8----------|||-------0-----------3-----------------5----------|||-------2-----------------------2-----5----------|||-------3-----------3-----------------7----------|||-------5-----------5-----------------7----------|||-------------------------------------5----------|
| | | | | | |||------------------------------------------|||------------------------------------------|||-------------------------------------7----|||-------------------------7-----9----------|||-7-----8-----5-----8----------------------|||------------------------------------------|
||
||------------------------------------------|||-------0--0--------------------0----------|||-------2--2--------------------2----------|||-------3--3--------------------3----------|||-------5--5--------------------5----------|||------------------------------------------|
| | | | | | | |||-------------8-----12---------------------------|||-------10----------10---------------------------|||-10----------------9-----------9-----10----7----|||------------------------------------------------|||------------------------------------------------|||------------------------------------------------|
||
||-------------------8-----------0-----1----------|||-3-----------------5----------------------------|||-------------2-----5----------------------------|||-3-----------------7-----------2-----3----------|||-5-----------------7----------------------------|||-------------------5----------------------------|
| | | | | | |||-------9----------------------------------|||-10----10----------------------------10---|||-------9-----------9-----10----7----------|||-------11---------------------------------|||------------------------------------------|||------------------------------------------|
||
||-1-----0-----------0-----1-----------1----|||------------------------------------------|||-2-----2-----------------------------2----|||-0-----2-----------2-----3-----------0----|||-------0----------------------------------|||------------------------------------------|
| | | | | | | |||-9-----------12----------12----------------14---|||-10----------10----------10----------------10---|||-9-----------9-----------9----------------------|||-11----------11----------11----------------11---|||------------------------------------------------|||------------------------------------------------|
||
||-0-----------5-----------5-----------------2----|||-------------2-----------2-----------------2----|||-2-----------2-----------2----------------------|||-2-----------2-----------2----------------------|||-0-----------0-----------0----------------------|||-------------------------------------------2----|
| | | | | | |||-12----14----12----14--1717---------------|||-10----10----10----10--1414---------------|||-----------------------1414---------------|||-11----11----11----11--1414---------------|||------------------------------------------|||------------------------------------------|
|| |||-0-----2-----0-----2---5-5----------------|||-------2-----------2---2-2----------------|||-----------------------2-2----------------|||-----------------------2-2----------------|||-0-----------0---------0-0----------------|||-------2-----------2----------------------|
Tap to rate this tab
 
# A B C D E F G H I J K L M N O P Q R S T U V W X Y Z