Homage To Debussy Hommage Au Tombeau De Debussy tab with lyrics by Manuel De Falla for guitar @ Guitaretab

Manuel De Falla – Homage To Debussy Hommage Au Tombeau De Debussy tab

E||--------------------------|-----0------------------------------|B||--------------------------|-------0----------------------------|G||--------------------------|---------2--------------------------|D||--------3-2---3---2-3--2--|--3--------3------3-2---3---2-3--2--|A||------------0-------0-----|--0----------0--------0-------0-----|E||-----------------------0--|---------------0-----------------0--|
-----0-------------------0----------------|---------------------------|-------0---------------0------------------|---------------------------|---------2-----------2--------------------|--0--2----0----------------|--3--------3-------3--------3--2-3--2--3--|--0----------3---2-3--2--3-|--0----------0---0----------0-------------|--0----------0-------------|---------------0--------------------0-----|----------------------0----|
--0----------------------------|--0----------------------------|------2-0--3-2-0--2----0--2----|------2-0--3-2-0--2----0--2-3--|--------------------2----------|--------------------2----------|--------------------3--------3-|--------------------3----------|---------------0-------0-------|---------------0---------------|-----------0--------------0----|-----------0-----------0-------|
--0--1----0-------0---------------|--------------------------------|-------3-----2--------2-----------|-----2-3-----1---------------1--|----------------------------------|--0-------3----2--3--0-2--3-----|----------------3-------5-s-8-----|--------------------------------|----------------------------------|--------------------------------|-------------------------------0--|--------------------------------|
-----------------0------------------|----------------3-----------|-------------------0----------------|--------------3-----3-------|--2------------------2--------------|----------------------0-----|--3---2-3--2--3--------3------3-2---|--3---2-3--2----------------|--0-----0-----0----------0--------0-|--------0-------------------|--0--------0---------------0--------|-------------------------3--|
-----5-6-----5-----------------7---|---------------5------------------|--3-------8----7--8----7--8--------|-----8-----------7--8--5-6-----5--|--0------------------9-------6-----|---7--------3---------------7-----|-----------------------------------|----------3-----------------------|--3--------------------------------|----------------------------------|-----------------------------------|--------3-------------------------|
------------------7------------|-----------------0--2-3-----------|--2----------------------------|--2------------0---------5h-3p5-3-|--0-----------------7----------|--0-------------------------3-----|--4---2-4--2----------7----4-2-|--4---2-4--2----------------------|--0-----------0---------7--0---|--0----------0--------------------|-----------0-------------------|-----------0----------------------|
-------0------------------------|---------------12---------------12--|-----2----2--3----1-------------|--0---0------------0---0------------|---------------3-----2-3--0--2--|------------------------------------|----------3---------------------|--2-----2----------2-----2----------|--0-----------------------------|--0-------0--------0-------0--------|----------3---------------------|--1---------0------1---------0------|
--------------0--------------0-----0-----0-|----------------------7----|------------0--------------0-----0-----0---|-------------0-------------|----------2--------------------------------|--0------------------------|--------2----------------0-----------0-----|---------2-----2-----------|------0--------------0-2-------3-----------|---------0-------0---------|----1--------------------------------------|---------1---------0-------|
---------------------------------------------|---------------------------------------------|---------------------------------------------|---------------0-2-3-2-0------------0--2--3--|---------0-2-3-----------3-2-0-2-3-----------|---0-1-3-------------------------------------|
----0---0---0---0------0-----0---0---0---0------0---|--0---0---0---0---0--1---1-0---0---0---0---0--1---1-|--2------------------------2------------------------|--0------------------------0------------------------|---------------------0------------------------0-----|----------------------------------------------------|
----0-----0-----0-----0-----0---0---0---0------0---|--0---0-1---1-3---3-1---1-0---0---0---0---0--1---1-|--2-----------------------2------------------------|--0-----------------------0------------------------|--------------0------------------------------0-----|---------------------------------------------------|
------0-----0-----0-----0-----0-----0-----0---1-|----0-----0-----0-----0-----0-----0-----0-------|--2-----------2-----------2---------------------|--------------0-----2-----0---------------------|--2-----3-----------------------3-----2-----0---|------------------------------------------------|
--------------0----------------|--------------------9--4--------|--0---------1---0------------0-|---------------0--------------0-|-------------------------2-----|--------------------------------|-------0-----------------3-2---|--3--------3-2---3--------3-2---|----------------------3--------|-----4--------------------------|-----3---3---------1-----------|--------4-----------9--4--------|
------------------------------|-----------------0------------------|------------------------------|-------------------0----------------|-------0-1--0-----------------|---------------------2--------------|--3------------3--------3-2---|--3---2-3--2--3--------3------3-2---|-----4------------4---------0-|--------0-----0----------0--------0-|------------4--------4--------|-----------0---------------0--------|
-----------------0-------------------0--|-----------------------------|-------------------0---------------0----|-----------------------------|---------------------2-----------2------|----------------0--2----0----|--3---2-3--2--3--------3-------3--------|--3--2-3--2--3--0----------3-|--------0-----0----------0---0----------|--0-------------0------------|-----------0---------------0------------|----------0------------------|
--0----------------------------|--0----------------------------|------2-0--3-2-0--2----0--2----|------2-0--3-2-0--2----0--2-3--|--------------------2----------|--------------------2----------|--------------------3--------3-|--------------------3----------|---------------0-------0-------|---------------0---------------|-----------0--------------0----|-----------0-----------0-------|
--0--1----0-------0---------------|--------------------------------|-------3-----2--------2-----------|-----2-3-----1---------------1--|------------------------0-2-3-----|--0-------3----2--3--0-2--3-----|----------------3-----------------|--------------------------------|----------------------------------|--------------------------------|-------------------------------0--|--------------------------------|
------16----------2------------4--|------16----------2------------5--|--2-------------------------------|--2-------------------------------|--4-------------------------------|--4-------------------------------|--3-----------0-2---4--4-4--4-----|--3-----------0-2---4--4-4--4-----|------------4---------------------|------------4---------------------|----------4-----------------------|----------4-----------------------|
-----------------------------|-----------------------|------------------||------2----------------------|-----------------------|------------------||-----------------------------|-----------------------|------------------||----------2-3--2-----3-2--3--|--2-------3---------2--|------------------||----0-------0-----0----------|-----0-----------------|------------------||----0----------0-------------|--0------------0-------|------------------||
Please rate this tab:
x1.0