Will O The Wisp Cancion Del Fuego Fatuo Chanson Du Feu Follet tab with lyrics by Manuel De Falla - Easy chords and tabs for guitar

Manuel De Falla – Will O The Wisp Cancion Del Fuego Fatuo Chanson Du Feu Follet tab

standard tuning

|---------12---|-----0---|---------12---|-----0---|--------------||---------11---|---------|---------11---|---------|---10-10------||---------10---|---------|---------10---|---------|----9---------||-0------------|-----8-7-|-0------------|-----8-7-|----8--7------||-----12-------|-0-------|-----12-------|-0-------|-0------------||--------------|---------|--------------|---------|--------------|
|-5---10---10---|-(10)---8-10-(10)---|--7----5---10---||---------------|----------13-(13)---|----------------||-----------7---|--------------------|------------7---||------7--------|---5----------------|-------7--------||-5-------------|--------7------0----|--5-------------||---------------|--------------------|----------------|
|-(10)---8-10-(10)---|-7----5--------|-------7-------||----------13-(13)---|------------8--|-(8)-----------||--------------------|------------7--|---------------||---5----------------|------7--------|--5------------||--------7------0----|-5-------------|-------7-------||--------------------|---------------|------------5--|
|-7--8------12---|-----0-------|---------12---|-------------||---12-10---11---|-------------|---------11---|-------------||-----------10---|-------------|---------10---|-----9-------||----------------|-----8---7---|-0---7--------|-------------||-5--------------|-0-----------|--------------|-------------||----------------|-------------|--------------|-------------|
-----------------------------
|-7--8--------|---10-11---|---------------|---------------||---12-10--10-|------15---|--8----8---8---|-8---6-8-------||-------------|-----------|-----------7---|-------10------||-------------|---------12|---------------|-7---------0---||-5-----------|-5---------|-------5-------|---------------||-------------|-----------|--5------------|---------------|
|-5----6-5-|-----10-11---|-----------------|-0-------------||--------8-|--------15---|--8----8---8-----|10---10--------||----------|-------------|-----------7-----|-9-------------||----------|-0---------12------------------|-8---7---------||---5------|-------------|-------5---------|---------------||-3--------|-------------|--5--------------|---------------|
|-7---5---10---|-(10)---8-10-(10)---|--7----5---10---||--------------|----------13-(13)---|----------------||----------7---|--------------------|------------7---||-----7--------|---5----------------|-------7--------||-5------------|--------7------0----|--5-------------||--------------|--------------------|----------------|
|-10---8-10-(10)---|--7----5-------|-------7-------|-7--8----12---||--------13-(13)---|-----------8---|-(8)-----------|---12-10-11---||------------------|-----------7---|---------------|---------10---||-5----------------|-------7-------|--5------------|--------------||------7-----0-----|--5------------|-------7-------|-5------------||------------------|---------------|------------5--|--------------|
-------------
|-----0---|--------|---3---|-------------|22------||---------|--------|---1---|---------5---|----3---||---------|------7-|---3---|---------6---|----3---||-----87--|----7---|-------|---------7---|----5--3||-0-------|-5------|-3---1-|-----7-------|--------||---------|--------|-------|-5-----------|--------|
|----3---|-------|---------|-------|-----5-|-10-----|-------|-------*||----1---|-------|---------|-------|-------|--------|-------|-------*||----0---|---9---|---------|-------|---7---|--------|-------|-------*||--------|-------|---------|-------|-7-----|--------|-4-----|-4-----*||-3----1-|-0---7-|---------|-----5-|-------|--------|-0-----|-0-----*||--------|-------|-----8-7-|-0-7---|-------|--------|-0-----|-0-----*|
Please rate this tab:
x1.0