Song name
# A B C D E F G H I J K L M N O P Q R S T U V W X Y Z

A Day To Remember - Speak Of The Devil tab

Tabbed by: Joshua Garcia (halofreak731@aol.com)

Tabs for the song: Speak of the Devil by A Day To Remember
Please rate and let me know if you have any corrections, thank you.


Tuning: Drop C (C G C F A D)


Intro:
D||-----------------------------------|-----------------------------------|
A||-------666666666---x---555---------|-----------------------------------|
F||-------xxxxxxxxx---x---555----x3---|--3-3---3-3---2-2------------------|
C||-0--0--777777777---x---555---------|--3-3---3-3---2-2---3--------------|
G||-0--0--555555555---x---333---------|--1-1---1-1---0-0---3--------------|
C||-0--0------------------------------|--------------------3--------------|
                                                           .


D||-----------------------------------|-----------------------------------|
A||-------666666666---x---555---------|-----------------------------------|
F||-------xxxxxxxxx---x---555----x3---|--3-3---3-3---2-2------------------|
C||-0--0--777777777---x---555---------|--3-3---3-3---2-2---3-3------------|
G||-0--0--555555555---x---333---------|--1-1---1-1---0-0---3-3------------|
C||-0--0------------------------------|--------------------3-3------------|


Pre-Chorus:
D||-----------------------------------|--------------------------------------------|
A||-----------------------------------|--------------------------------------------|
F||-----------------------------------|--------------------3-3---3-3---5-5---5-5---|
C||-0-------------0-0-----------------|--0--------------0--3-3---3-3---5-5---5-5---| x2
G||-0-------------0-0-----------------|--0--------------0--1-1---1-1---3-3---3-3---|
C||-000000000000000-000000000--3-6-5--|--0000000000000000--------------------------|
     .............   ........             ..............


D||----------|
A||----------|
F||-3-----5--|
C||-3-----5--|
G||-1-----3--|
C||----------|


Chorus:
D||-----------------------------------------------------------------------|
A||-----------------------------------------------------------------------|
F||-7-77-777-777-777-----------------------------------5-55-555-555-555---|
C||-7-77-777-777-777-8-88-888-888-888-3-33-333-333-333-5-55-555-555-555---| x2
G||-5-55-555-555-555-8-88-888-888-888-3-33-333-333-333-3-33-333-333-333---|
C||------------------8-88-888-888-888-3-33-333-333-333--------------------|



D||-----------------------------|
A||-------666666666---x---555---|
F||-------xxxxxxxxx---x---555---|
C||-0--0--777777777---x---555---| x2
G||-0--0--555555555---x---333---|
C||-0--0------------------------|


Pre-Chorus:
D||-----------------------------|-----------------------------------------|
A||-----------------------------|-----------------------------------------|
F||-----------------------------|-----------------3-3---3-3---5-5---5-5---|
C||-0-----------0---------------|--0--------------3-3---3-3---5-5---5-5---| x2
G||-0-----------0---------------|--0--------------1-1---1-1---3-3---3-3---|
C||-00000-------00000--0h3-6-5--|--00000----------------------------------|
     ....        ....               ....


D||--------------------|
A||--------------------|
F||-3-----5-----x-x-x--|
C||-3-----5-----x-x-x--|
G||-1-----3-----x-x-x--|
C||--------------------|


Chorus:
D||-----------------------------------------------------------------------|
A||-----------------------------------------------------------------------|
F||-7-77-777-777-777-----------------------------------5-55-555-555-555---|
C||-7-77-777-777-777-8-88-888-888-888-3-33-333-333-333-5-55-555-555-555---| x2
G||-5-55-555-555-555-8-88-888-888-888-3-33-333-333-333-3-33-333-333-333---|
C||------------------8-88-888-888-888-3-33-333-333-333--------------------|


Bridge:
D||-----------------------------------|---------------------------------|
A||-66--------------------------------|-66------------------------------|
F||-55--------------------------------|-55------------------------------|
C||-33-000-0-----------000-000----x3--|-33-000-0------------------------|
G||----000-0-----------000-000-0------|----000-0------------------------|
C||----000-0---0---0---000-000-0------|----000-0------------------------|
       ... .   .   .   ... ... .           ... .    


D||-----------------------------------|---------------------------------|
A||-66--------------------------------|-66------------------------------|
F||-55--------------------------------|-55------------------------------|
C||-33-000-0-----------000-000----x3--|-33-000-0------------------------|
G||----000-0-----------000-000-0------|----000-0------------------------|
C||----000-0---0---0---000-000-0------|----000-0-----6b8--br------------|
       ... .   .   .   ... ... .           ... .    


D||-----------------------------------|
A||-66------(let-ring)----------------|
F||-55--------------------------------|
C||-33-000-0---------000-000----------| x4
G||----000-0---------000-0000---------|
C||----000-0------0--000-0000---------|
       ... .      .  ... ....   


D||------------|
A||------------|
F||-3-----5\0--|
C||-3-----5\0--|
G||-1-----3\0--|
C||------------|


Chorus:
D||-----------------------------------------------------------------------|
A||-----------------------------------------------------------------------|
F||-7-77-777-777-777-----------------------------------5-55-555-555-555---|
C||-7-77-777-777-777-8-88-888-888-888-3-33-333-333-333-5-55-555-555-555---| x4
G||-5-55-555-555-555-8-88-888-888-888-3-33-333-333-333-3-33-333-333-333---|
C||------------------8-88-888-888-888-3-33-333-333-333--------------------|


Outro:
D||--------------------------------------------|----------------------------------------|
A||--------------------------------------------|----------------------------------------|
F||--------------------------------------------|----------------------------------------|
C||----------7---------------------------7--0--|-----------7-------------------7--------|
G||----8-----------8---------7-----8--------0--|-----8-----------8------7-8-10---10-8---|
C||-0-----0-----0-----0---0-----0-----0-----0--|--0-----0-----0-----0-------------------|



D||----------------------------------------|
A||----------------------------------------|
F||----------------------------------------|
C||-0-------------0-0--------------0000----|
G||-0-------------0-0--------------0000----|
C||-000000000000000-00000000000000-0000----|
     .............   ............. ...




Tablature Legend
----------------
 h   - hammer-on
 p   - pull-off
 b   - bend
 *   - pinch harmonic
 x   - mute note
 .   - palm mute
 /   - slide down
 \   - slide up
Tap to rate this tab
# A B C D E F G H I J K L M N O P Q R S T U V W X Y Z