Song name
# A B C D E F G H I J K L M N O P Q R S T U V W X Y Z

A Day To Remember - You Shouldve Killed Me When You Had The Chance tab

Drop C Tuning

BY: xXxgallowsxXx add me if you think i did a good tab

May not be 100% correct, and maybe missing a few parts toward the end.

Don't give bad rating if end is off, please and thanks.


  INTRO
D------------------------------------------------------------|
A------------------------------------------------------------|
F-4444-4----10101010-10----4444-4----10101010-10-10101010-10-|
C-2222-2-X2--8-8-8-8--8-X2-2222-2-X2--8-8-8-8--8-10101010-10-|
G-4444-4-----8-8-8-8--8----4444-4-----8-8-8-8--8-10101010-10-|
C------------------------------------------------------------|
  ....       . . . .       ....       . . . .     . . . .

D------------------------------------------------------------------|
A------------------------------------------------------------------|
F------------------------------------------------------------------|
C------------------------------------------------------------------| X2
G0----------------00----------------08--------810--------107-----7-|
C00000000000000000000000000000000000088888888881010101010107777777-


  CHORUS
D---------------------------------------------------------------------|
A---------------------------------------------------------------------|
F---------------------------------------------------------------------|
C-5555555555555555-8888888888888888-0000000000000000-3333333333333333-|
G-5555555555555555-8888888888888888-0000000000000000-3333333333333333-|
C-5555555555555555-8888888888888888-0000000000000000-3333333333333333-|


D------------------------------------------------------------------|
A------------------------------------------------------------------|
F-8888888888888888-10101010101010101010101010101010----------------|
C-8888888888888888-10101010101010101010101010101010---10---10---10-|
G-8888888888888888-10101010101010101010101010101010-88-8-88-8-88-8-|
C-8888888888888888-10101010101010101010101010101010----------------|

D--------------------------------------------------------------------|
A--------------------------------------------------------------------|
F--------------------------------------------------------------------|
C-3333333333333333-8888888888888888-10101010101010101010101010101010-| X2
G-3333333333333333-8888888888888888-10101010101010101010101010101010-|
C-3333333333333333-8888888888888888-10101010101010101010101010101010-|

  BRIDGE
D-------------------------------------------------------------------------|
A-------------------------------------------------------------------------|
F-------------------------------------------------------------------------|
C-----------------------------------10------------------------------------|X2
G---8---7--8--8-777---8---7--8--8-78-----8---7--8--8-777-----8-----7---8^-|
C-00--00--0-00-0----00--00--0-00-0-----88--88--8-88-8----1010--1010--10---|

  CHORUS
D---------------------------------------------------------------------|
A---------------------------------------------------------------------|
F---------------------------------------------------------------------|
C-5555555555555555-8888888888888888-0000000000000000-3333333333333333-|
G-5555555555555555-8888888888888888-0000000000000000-3333333333333333-|
C-5555555555555555-8888888888888888-0000000000000000-3333333333333333-|


D------------------------------------------------------------------|
A------------------------------------------------------------------|
F-8888888888888888-10101010101010101010101010101010----------------|
C-8888888888888888-10101010101010101010101010101010---10---10---10-|
G-8888888888888888-10101010101010101010101010101010-88-8-88-8-88-8-|
C-8888888888888888-10101010101010101010101010101010----------------|

D--------------------------------------------------------------------|
A--------------------------------------------------------------------|
F--------------------------------------------------------------------|
C-3333333333333333-8888888888888888-10101010101010101010101010101010-| X2
G-3333333333333333-8888888888888888-10101010101010101010101010101010-|
C-3333333333333333-8888888888888888-10101010101010101010101010101010-|

  OUTRO
D--------------------------------------------------------|
A--------------------------------------------------------|
F--------------------------------------------------------|
C---------------------------------22-3333333333333333----|
G-3333333333333333-33333333333335533-3333333333333333-X2-|
C-3333333333333333-333333333333333---3333333333333333----|
  ................ .............     ................

D------------------------------------------------|
A------------------------------------------------|
F------------------------------------------------|
C-3-3-3-3-3-3-3-3-000-000-000-0-0-0-0--X4-3--0-3-|
G-3-3-3-3-3-3-3-3-000-000-000-0-0-0-0-----3--0-3-|
C-3-3-3-3-3-3-3-3-000-000-000-0-0-0-0-----3--0-3-|
                  ... ... ...

Well that's it.
Enjoy.
Tap to rate this tab
# A B C D E F G H I J K L M N O P Q R S T U V W X Y Z