Song name
# A B C D E F G H I J K L M N O P Q R S T U V W X Y Z

A Day To Remember - You Shouldve Killed Me When You Had The Chance tab

i messed up version 2, but i got it down right now

drop c tuning

*TABBED BY xXxgallowsxXx*

INTRO (part 1)

D----------------------------------------------------|
A----------------------------------------------------|
F------3-------------------3-------------------------|
C-5555-5-X2-----10-X2-5555-5-X2----10--10101010-10---|
G-3333-3---8888-8-----3333-3---8888-8--10101010-10---|
C----------8888-8--------------8888-8--10101010-10---|
  ....     ....      ....     ....    . . . .

INTRO [part 2 (repeat twice)]

D--------------------------------------------------|
A--------------------------------------------------|
F--------------------------------------------------|
C-00---------------------000-0---------------------|
G-00-0000-0000-0000-0000-000-0-0000-0000-0000-0000-|
C-00-0000-0000-0000-0000-000-0-0000-0000-0000-0000-|
    .... .... .... ....       .... .... .... ....

D------------------------------------------------------------|
A------------------------------------------------------------|
F------------------------------------------------------------|
C-00-1010---------------------10--1010----------1010-77------|
G-00-8-8--8888-8888-8888-8888-8-8-1010-10101010-1010-77-7777-|
C-00-8-8--8888-8888-8888-8888-8-8-1010-10101010-1010-77-7777-|
          .... .... .... ....          ........         ....

CHORUS

D--------------------------------------------------------------|
A--------------------------------------------------------------|
F--------------------------------------------------------------|
C-555-555-555-5558-88-888-888-8880-00-000-000-0003-33-333-3338-|
G-555-555-555-5558-88-888-888-8880-00-000-000-0003-33-333-3338-|
C-555-555-555-5558-88-888-888-8880-00-000-000-0003-33-333-3338-|

D----------------------------------------------------------------------|
A----------------------------------------------------------------------|
F----------------------------------------------------------------------|
C-88-888-88810-1010-101010-101010-101010---10---10---10---10---10-12/1-|
G-88-888-88810-1010-101010-101010-101010-888--888--888--888--888--12/1-|
C-88-888-88810-1010-101010-101010-101010--------------------------12/1-|

D------------------------------------------------------------------------|
A------------------------------------------------------------------------|
F------------------------------------------------------------------------|
C-0-0000000--0000000-8-8888888-8888888--10-10101010101010-10101010101010-|
G-0-0000000--0000000-8-8888888-8888888--10-10101010101010-10101010101010-|
C-0-0000000--0000000-8-8888888-8888888--10-10101010101010-10101010101010-|

D----------------------------------------------------------|
A----------------------------------------------------------|
F----------------------------------------------------------|
C-3-3333333-3333333--0-0000000-0000000--8-8888888-8888888--|
G-3-3333333-3333333--0-0000000-0000000--8-8888888-8888888--|
C-3-3333333-3333333--0-0000000-0000000--8-8888888-8888888--|

D----------------------------------|
A----------------------------------|
F----------------------------------|
C-10-10101010101010-10101010101010-|
G-10-10101010101010-10101010101010-|
C-10-10101010101010-10101010101010-|

BREAKDOWN/INTERLUDE (part 1)

D--------------------------------------------------------------|
A--------------------------------------------------------------|
F--------------------------------------------------------------|
C-------------------------------10-----------------------------|
G---8--7-8--8-777---8--7-8--8-78---8--7-8--8-777-----8----7--8-|
C-00-00-0-00-0----00-00-0-00-0---88-88-8-88-8----1010-1010-10--|
  .. .. . .. .    .. .. . .. .   .. .. . .. .     . .  . .  .

BREAKDOWN/INTERLUDE [part 1 (repeat twice)]

D--------------------------------------------------|
A--------------------------------------------------|
F--------------------------------------------------|
C-------------------------------10-----------------|
G---8--7-8--8-777---8--7-8--8-78-----8--7-8--8-777-|
C-00-00-0-00-0----00-00-0-00-0-----88-88-8-88-8----|
  .. .. . .. .    .. .. . .. .     .. .. . .. .

D-------------------------------|
A-------------------------------|
F-------------------------------|
C-------------------------------|
G-----8----7--8-----10---8---78-|
C-1010-1010-10--1010---10--10---|
   . .  . .  .   . .    .   .

CHORUS

D--------------------------------------------------------------|
A--------------------------------------------------------------|
F--------------------------------------------------------------|
C-555-555-555-5558-88-888-888-8880-00-000-000-0003-33-333-3338-|
G-555-555-555-5558-88-888-888-8880-00-000-000-0003-33-333-3338-|
C-555-555-555-5558-88-888-888-8880-00-000-000-0003-33-333-3338-|

D----------------------------------------------------------------------|
A----------------------------------------------------------------------|
F----------------------------------------------------------------------|
C-88-888-88810-1010-101010-101010-101010---10---10---10---10---10-12/1-|
G-88-888-88810-1010-101010-101010-101010-88---88---88---88---88---12/1-|
C-88-888-88810-1010-101010-101010-101010--------------------------12/1-|

D------------------------------------------------------------------------|
A------------------------------------------------------------------------|
F------------------------------------------------------------------------|
C-0-0000000--0000000-8-8888888-8888888--10-10101010101010-10101010101010-|
G-0-0000000--0000000-8-8888888-8888888--10-10101010101010-10101010101010-|
C-0-0000000--0000000-8-8888888-8888888--10-10101010101010-10101010101010-|

D----------------------------------------------------------|
A----------------------------------------------------------|
F----------------------------------------------------------|
C-3-3333333-3333333--0-0000000-0000000--8-8888888-8888888--|
G-3-3333333-3333333--0-0000000-0000000--8-8888888-8888888--|
C-3-3333333-3333333--0-0000000-0000000--8-8888888-8888888--|

D------------------------------------|
A------------------------------------|
F------------------------------------|
C-10-10101010101010-10101010101010-0-|
G-10-10101010101010-10101010101010-0-|
C-10-10101010101010-10101010101010-0-|

OUTRO (part 1)

D----------------------------------------|
A----------------------------------------|
F----------------------------------------|
C-0000000000000000--8888888888888-101010-|
G-0000000000000000--8888888888888-101010-|
C-0000000000000000--8888888888888-101010-|
  ................  .............  . . .

D----------------------------------------|
A----------------------------------------|
F----------------------------------------|
C-0000000000000000--8888888888888-101010-|
G-0000000000000000--8888888888888-101010-|
C-0000000000000000--8888888888888-101010-|
  ................  .........

OUTRO [part 2 (repeat 4 times)]

D------------------------------------------------------|
A------------------------------------------------------|
F------------------------------------------------------|
C-0000000000000000-888-8-888-8-888-8-888-8-8/10-101010-|
G-0000000000000000-888-8-888-8-888-8-888-8-8/10-101010-|
C-0000000000000000-888-8-888-8-888-8-888-8-8/10-101010-|
                   ...   ...   ...   ...

OUTRO (part 3)

D----------|
A----------|
F----------|
C-3----3/1-|
G-3--3-3/1-|
C-3--3-3/1-|
     .
Tap to rate this tab
 
# A B C D E F G H I J K L M N O P Q R S T U V W X Y Z