Song name
# A B C D E F G H I J K L M N O P Q R S T U V W X Y Z

Acid Bath - Dead Girl chords

Highlighted       Show chord diagrams
I just tabbed all the parts with power chords. All the other version's power chords that 
looked at didnt sound to right on some parts. The rest of the tabs were fine though, 
is why im only tabbing the power chord parts.
..not that mine is perfect either but its a little closer i hope.

So yeaa pretty much all power chords, tabbed by ear. Pretty simple. Enjoy!

*Standard Tuning
^= up stroke
v= down stroke


         G                G#       F           G
 e|--------------------------------------------------------|
 B|--------------------------------------------------------|
 G|--------------------------------------------------------|
 D|--5-5-5-5-5-5-5-5---6-6-6-6---3-3-3-3---5-5-5-5-5-5-5-5-|
 A|--5-5-5-5-5-5-5-5---6-6-6-6---3-3-3-3---5-5-5-5-5-5-5-5-|
 E|--3-3-3-3-3-3-3-3---4-4-4-4---1-1-1-1---3-3-3-3-3-3-3-3-|
     v ^ v ^ v ^ v ^   v ^ v ^   v ^ v ^   v ^ v ^ v ^ v ^

         When death sleeps,   it dreams of you

 e|--------------------------------------------------------|
 B|--------------------------------------------------------|
 G|--------------------------------------------------------|
 D|-----6------------------8-------------------------------|
 A|-----6------------------8-------------------------------|
 E|-----4------------------6-------------------------------|
        v                  v

        Delilah played the dead girl at the


 e|--------------------------------------------------------|
 B|--------------------------------------------------------|
 G|--------------------------------------------------------|
 D|-----5-5-5-5-5-5-5-5------------------------------------|
 A|-----5-5-5-5-5-5-5-5------------------------------------|
 E|-----3-3-3-3-3-3-3-3------------------------------------|
        v ^ v ^ v ^ v ^

            freak show,

                    A#
 e|--------------------------------------------------------|
 B|--------------------------------------------------------|
 G|--------------------------------------------------------|
 D|-----6-6-6-6---8-8-8-8---5-5-5-5-5-5-5-5----------------|
 A|-----6-6-6-6---8-8-8-8---5-5-5-5-5-5-5-5----------------|
 E|-----4-4-4-4---6-6-6-6---3-3-3-3-3-3-3-3----------------|
        v ^ v ^   v ^ v ^   v ^ v ^ v ^ v ^

        She smiles like a ghost,

 e|--------------------------------------------------------|
 B|--------------------------------------------------------|
 G|--------------------------------------------------------|
 D|-----6-6-6-6--------8-8-8-8-----5-5-5-5-5-5-5-5---------|
 A|-----6-6-6-6--------8-8-8-8-----5-5-5-5-5-5-5-5---------|
 E|-----4-4-4-4--------6-6-6-6-----3-3-3-3-3-3-3-3---------|
        v ^ v ^        v ^ v ^     v ^ v ^ v ^ v ^

   like zombies eatin' dust in mexico


*(For the parts in the brackets[ ],position them like you would G#m and Gm, but dont 
the power chord the last 3 strums,just the high e and B strings. Listen to the song to get 
i mean.)
~CHORUS:
             Cm          G#m        Gm          Cm
 e|-----3-3-3-3-3-3---[--4-4-4]--[--3-3-3]---3-3-3-3-3-3---|
 B|-----4-4-4-4-4-4---[--x-x-x]--[--x-x-x]---4-4-4-4-4-4---|
 G|-----5-5-5-5-5-5---[--x-x-x]--[--x-x-x]---5-5-5-5-5-5---|
 D|-----5-5-5-5-5-5---[6-6-6-6]--[5-5-5-5]---5-5-5-5-5-5---|
 A|-----3-3-3-3-3-3---[6-6-6-6]--[5-5-5-5]---3-3-3-3-3-3---|
 E|-------------------[4-4-4-4]--[3-3-3-3]-----------------|
        v ^ v ^ ^ v    v ^ v ^    v ^ v ^    v ^ v ^ ^ v

       Life dries cold beneath the dead soul lights


 e|-----[--4-4-4]--[--3-3]---------------------------------|
 B|-----[--x-x-x]--[--x-x]---------------------------------|
 G|-----[--x-x-x]--[--x-x]---------------------------------|
 D|-----[6-6-6-6]--[5-5-5]---------------------------------|
 A|-----[6-6-6-6]--[5-5-5]---------------------------------|
 E|-----[4-4-4-4]--[3-3-3]---------------------------------|
         v ^ v ^    v ^ v

         Ye  -  ah.

~Its all the same for the next verse and next chorus:


     G                         G# F           G
She asked if it would hurt, I smiled and said no,

     G#             A#           G
 The lie ran down my chin like embryo

 G#          A#     G
 She smiles like a corpse,

      G#             A#        G
 like zombies eatin' dust in mexico.


 Cm                 G#m        Gm       Cm
 Life dries cold beneath the dead soul lights


 G#     Gm
 Ye  -  ah.

 Cm                    G#m      Gm       Cm
 When death sleeps,        it dreams of you

 G#m    Gm
 Ye  -  ah.

and now the last part:


 e|-------------------------------------------------------|
 B|-------------------------------------------------------|
 G|-------------------------------------------------------|
 D|---8-8-8-8---8-8-8-8---8-8-8-8-------------------------|
 A|---8-8-8-8---8-8-8-8---8-8-8-8-------------------------|
 E|---6-6-6-6---6-6-6-6---6-6-6-6-------------------------|
      v v ^ v   v ^ ^ v   v ^ v ^

            I been dryin' in a dead


 e|-------------------------------------------------------|
 B|-------------------------------------------------------|
 G|-------------------------------------------------------|
 D|---3-3-3-3---3-3-3-3---3-3-3-3-------------------------|
 A|---3-3-3-3---3-3-3-3---3-3-3-3-------------------------|
 E|---1-1-1-1---1-1-1-1---1-1-1-1-------------------------|
      v v ^ v   v ^ ^ v   v ^ v ^

      age,  I been reekin' of the new


 e|-------------------------------------------------------|
 B|-------------------------------------------------------|
 G|-------------------------------------------------------|
 D|---5-5-5-5---5-5-5-5---5-5-5-5-------------------------|
 A|---5-5-5-5---5-5-5-5---5-5-5-5-------------------------|
 E|---3-3-3-3---3-3-3-3---3-3-3-3-------------------------|
      v v ^ v   v ^ ^ v   v ^ v ^

     plague,the sound of the ocean is


 e|-------------------------------------------------------|
 B|-------------------------------------------------------|
 G|-------------------------------------------------------|
 D|---1-1-1-1---1-1-1-1---1-1-1-1-------------------------|
 A|---1-1-1-1---1-1-1-1---1-1-1-1-------------------------|
 E|-------------------------------------------------------|
      v v ^ v   v ^ ^ v   v ^ v ^

     dead,Its just the echo of the blood in your


A#
head,

                      F
Sister burn the temple,

                       G
And stand beneath the moon,

                         (4th & 5th string, 1st fret)
The sound of the ocean is dead,

                                        A#
Its just the echo of the blood in your head,


                    F#
Ahhhhhhhhhhhhhhhhhh

                     G#
 Yeah   Yeah   Ye Ye Ye-ah!

                     A#
 Burnin' your black flags.
Tap to rate this tab
# A B C D E F G H I J K L M N O P Q R S T U V W X Y Z