Song name
# A B C D E F G H I J K L M N O P Q R S T U V W X Y Z

Acid Bath - Bones Of Baby Dolls tab

____________________________________________________________________________
I submitted another version of this tab, but it was very simplified and some of the 
are incorrect.  I tuned my guitar like Acid Bath does in all there songs (2 steps down) and 
a go at the song again, this time, it's perfect!!
____________________________________________________________________________

BONES OF BABY DOLLS
tabbed by dEKaY (Daniel Kitts)
dekay505@yahoo.com
08-27-2008

Tuning:  2 Whole Steps Down (C F Bb Eb G C)


INTRO
   Am               (E)       G       Am        E
|--(0)------------------------(3)----------------0--------0--------0--------|
|---1--1-----1--1-----0-----------0--------------0--0-----0--0-----0--0-----|
|---2-----2--2-----2--1--1-----0-----0--2--2-----1-----1--1-----1--1-----1--|
|---2--------2--------2-----2--0--------2-----0--2--------2--------2--------|
|--(0)-------------------------------------------2-----------------2--------|
|---------------------------------------------------------------------------|
fade in first time


------------|
--0--0------|
--1--1------|
--2-----2---|
--2---------|
------------|
              [2 times]

   Flow  - er       girls   play        lover
   Grave   games    in      the    court  -    yard
   Am               (E)       G       Am        E
|--(0)------------------------(3)----------------0--------0--------0--------|
|---1--1-----1--1-----0-----------0--------------0--0-----0--0-----0--0-----|
|---2-----2--2-----2--1--1-----0-----0--2--2-----1-----1--1-----1--1-----1--|
|---2--------2--------2-----2--0--------2-----0--2--------2--------2--------|
|--(0)-------------------------------------------2-----------------2--------|
|---------------------------------------------------------------------------|

------------|
--0--0------|
--1--1------|
--2-----2---|
--2---------|
------------|  [Play 2 times]


  I      heard        her
  F5       G5        E          Am
|------------------------------------------|
|---------(slide)-------0--------1--1------|
|--2--2----////---4-----1--1-----2-----2---|
|--3-----3--5--------5--2-----2--2---------|
|-(3)-------5-----------2------------------|
|------------------------------------------|

 Screaming  like a     radi  -  o
 F5       G5        E
|-----------------------------|
|-----------------------------|
|--------2--------4--1--1-----|
|-----3--------5-----2-----2--|
|--3--------5--------2--------|
|-----------------------------|

                                 Ahhhaahhhhh
   yeahhh ahhhhhhh                Ahhhahhhhahhhhh
  Am                Eb     D     Am
|----------------------------------------------------------hammer on---|
|--1--1----1--1---------4-----3--1-1----1--1---------4------0-/-3-\-0--|
|--2----2--2----2----------------2-2-2--2-----2------------------------|
|--2-------2----------5------4---2-2-2--2----------5------4------------|
|-------------------6------5---------------------6------5--------------|
|----------------------------------------------------------------------| [2X]

                                                            REPEAT ALL ONCE


  Am
|--0--
|--1--
|--2--           let ring
|--2--
|--0--
|-----
   end of intro

VERSE RIFF
   Am                Dm               Am            E
|----------------------------1----------------------------------------|
|-----------1--------------3----3------------1------------------------|
|--------2----2---------2----------2-------2---2-----------1----------|
|-----2----------2---0------------------2--------2-------2---2---2----|
|--0----------------------------------0----------------2-------2------|
|---------------------------------------------------0-----------------|


     Mary            Lou              left  marks on  you
     She    just     screams    at    the walls
     The kite string pops  I'm swallowed whole by the sky
    Am                Dm               Am            E             [3 times]
|----------------------------1----------------------------------------|
|-----------1--------------3----3------------1------------------------|
|--------2----2---------2----------2-------2---2-----------1----------|
|-----2----------2---0------------------2--------2-------2---2---2----|
|--0----------------------------------0----------------2-------2------|
|---------------------------------------------------0-----------------|


 We smoke the bones of baby dolls
    Am                Dm        E
|---------------------1--0----------------|
|---1---1--1-----1----3--0----------------|
|---2---2--2-----2----2--2------1--1--1---|
|---2---2--2-----2--------------2--2--2---|
|---0---------------------------2--2--2---|
|-----------------------------------------|


  Yeah ahhh  ahhhhahhhh  yeahhahh  yeahhhh
   Am       Dm       Am       E         Am            Dm    E
|-----0-----1--1--1-----------------------------------1--0------------|
|--1--1--1--3--3--3--1--1--1------------1--1--1--1----3--0------------|
|--2--2--2--2--2--2--2--2--2--1--1--1---2--2--2--2----2--2--1--1--1---|
|--2--2--2-----------2--2--2--2--2--2---2--2--2--2----------2--2--2---|
|--0-----0-----------0--0-----2--2--2---0-------------------2--2--2---|
|---------------------------------------------------------------------|


VERSE 2

Techno liquid screaming meat
Heavens cold beneath my feet
Cyber love the anti  man
We make love ohhohh because we can


VERSE 3

Virgins play where the bayou's blue
Barefoot eating mushroom stew
Work for pain and pain for freedom
Fuck them all cause we don't need 'em


OUTRO
   Am              C        G    E       Am
|-------------------------------------------|
|--------1----------------------------------|
|------2---2--------------------------------|
|----2-------2-------5------------bend------|
|--0------------0--3-----0----5-----2----0--|
|---------------------------3----0----------|

   Am              C        G    E       Am
|------------------------------------------|
|--------1---------------------------------|
|------2---2-------------------------------|
|----2-------2-------------------bend------|
|--0------------0--3---------------2----0--|
|-----------------------0--3----0----------|

Everythings gone dry, like bottle glass scraping 'cross the pavement

END SONG
Tap to rate this tab
# A B C D E F G H I J K L M N O P Q R S T U V W X Y Z