Song name
# A B C D E F G H I J K L M N O P Q R S T U V W X Y Z

Adema - Stand Up tab

Band:Adema
Song:Stand Up
Tuning:Drop D w/whole step down

#----------------------------------PLEASE NOTE---------------------------------#
#This file is the author's own work and represents their interpretation of the #
#song. You may only use this file for private study, scholarship, or research. #
#------------------------------------------------------------------------------#

Intro:
e|----------------------------------------------------------------------------| 
B|----------------------------------------------------------------------------|
G|----------------------------------------------------------10----------------|
D|--------10-9-10-9-------10-12-10-9-------10-9-10-9-----------10--9----------|
A|--8-10-----------8--10------------8--10-----------8-10-8--------------------|
D|----------------------------------------------------------------------------|


e|----------------------------------------------------------------------------| 
B|----------------------------------------------------------------------------|
G|----------------------------------------------------------------------------|
D|--5-5-5--1-1-1--1h3-3-3-3-3-3-3-3-3--5-5-5--1-1-1--1h3-3-3-3-3-3-3-3-3------|
A|--5-5-5--1-1-1--1h3-3-3-3-3-3-3-3-3--5-5-5--1-1-1--1h3-3-3-3-3-3-3-3-3------|
D|--5-5-5--1-1-1--1h3-3-3-3-3-3-3-3-3--5-5-5--1-1-1--1h3-3-3-3-3-3-3-3-3------|


Abusive, no more...
e|----------------------------------------------------------------------------| 
B|----------------------------------------------------------------------------|
G|----------------------------------------------------------------------------|
D|--5-5-5--1-1-1--1h3-3-3-3-1-1-1-1h3-3-3-3--5-5-5--1-1-1--1h3-3-3-3-3-3-3-3-3|
A|--5-5-5--1-1-1--1h3-3-3-3-1-1-1-1h3-3-3-3--5-5-5--1-1-1--1h3-3-3-3-3-3-3-3-3|
D|--5-5-5--1-1-1--1h3-3-3-3-1-1-1-1h3-3-3-3--5-5-5--1-1-1--1h3-3-3-3-3-3-3-3-3|



He says he love's you, but the make up will not cover up the bruises...
e|-----------------------------|
B|-----------------------------|
G|-----------------------------|
D|--5-5-5----7-7-7----3-3-3----|
A|--5-5-5----7-7-7----3-3-3----|
D|--5-5-5----7-7-7----3-3-3----|


Stand up stand up, he's a drunk and abusive...
e|------------------------------------------------------------|
B|------------------------------------------------------------|
G|--------------------------3-3-3-----------3-3-3---5-5-5-----|
D|--5-5-5---0-0-0---1-1-1---3-3-3---1-1-1---3-3-3---5-5-5-----|
A|--5-5-5---0-0-0---1-1-1---1-1-1---1-1-1---1-1-1---3-3-3-----|
D|--5-5-5---0-0-0---1-1-1-----------1-1-1---------------------|

Tap to rate this tab
# A B C D E F G H I J K L M N O P Q R S T U V W X Y Z