Song name
# A B C D E F G H I J K L M N O P Q R S T U V W X Y Z

Afi - On The Arrow tab

Artist: AFI
Song: On The Arrow
Album: Decemberunderground
Guitarist: Jade Puget
Tuning: Eb Standard
Guitar: Acoustic
Tabbed by: Grant Webster - tnarg_w@hotmail.com

[intro]
[riff 1]
eb|-0--0-0-0-0--0--0-0-0-0--3--3-3-3-3--2--2-2-2-2-|
Bb|-0--0-0-0-0--1--1-1-1-1--3--3-3-3-3--3--3-3-3-3-|
Gb|-0--0-0-0-0--0--0-0-0-0--0--0-0-0-0--0--2-2-2-2-|
Db|-2--2-2-2-2--2--2-2-2-2--0--0-0-0-0--0--0-0-0-0-|
Ab|-2--2-2-2-2--3--3-3-3-3--2--2-2-2-2--0--0-0-0-0-|
Eb|-0--0-0-0-0--0--0-0-0-0--3--3-3-3-3--2--2-2-2-2-| then
    Em          C           G           D

eb|-0--0-0-0-0--0--0-0-0-0--3--3-3-3-3--0--0-0-0-0-|
Bb|-0--0-0-0-0--1--1-1-1-1--3--3-3-3-3--0--0-0-0-0-|
Gb|-0--0-0-0-0--0--0-0-0-0--0--0-0-0-0--0--0-0-0-0-|
Db|-2--2-2-2-2--2--2-2-2-2--0--0-0-0-0--0--0-0-0-0-|
Ab|-2--2-2-2-2--3--3-3-3-3--2--2-2-2-2--5--5-5-5-5-|
Eb|-0--0-0-0-0--0--0-0-0-0--3--3-3-3-3--2--2-2-2-2-| 
    Em          C           G           D

[verse 1] - repeat riff 1 then
eb|-0--0-0-0-0--0--0-0-0-0--3--3-3-3-3--2--2-2-2-2-|
Bb|-0--0-0-0-0--1--1-1-1-1--3--3-3-3-3--3--3-3-3-3-|
Gb|-0--0-0-0-0--0--0-0-0-0--0--0-0-0-0--2--2-2-2-2-|
Db|-2--2-2-2-2--2--2-2-2-2--0--0-0-0-0--0--0-0-0-0-|
Ab|-2--2-2-2-2--3--3-3-3-3--2--2-2-2-2--0--0-0-0-0-|
Eb|-0--0-0-0-0--0--0-0-0-0--3--3-3-3-3--2--2-2-2-2-| then
    Em          C           G           D    

[riff 2]
eb|-0--0-0-0-0-------------|
Bb|-1--1-1-1-1-------------|
Gb|-0--0-0-0-0-------------|
Db|-2--2-2-2-2--4--4-4-4-4-|
Ab|-3--3-3-3-3--5--5-5-5-5-|
Eb|-0--0-0-0-0--2--2-2-2-2-|
    C           D

[Verse 2] - repeat verse 1 then ending of riff 2 like this
eb|-0--0-0-0-0------------------------------|
Bb|-1--1-1-1-1------------------------------|
Gb|-0--0-0-0-0------------------------------|
Db|-2--2-2-2-2--4--4-4-4-4--4-4-4-4-4-4-4-4-|
Ab|-3--3-3-3-3--5--5-5-5-5--5-5-5-5-5-5-5-5-|
Eb|-0--0-0-0-0--2--2-2-2-2--7-7-7-7-7-7-7-7-|
    C           D           Bm

[chorus 1] - play each chord round twice
eb|-7--7-7-7-7--8---8--8--8--8---3--3-3-3-3--5--5-5-5-5-|
Bb|-8--8-8-8-8--8---8--8--8--8---3--3-3-3-3--7--7-7-7-7-|
Gb|-9--9-9-9-9--9---9--9--9--9---4--4-4-4-4--7--7-7-7-7-|
Db|-9--9-9-9-9--10--10-10-10-10--5--5-5-5-5--7--7-7-7-7-|
Ab|-7--7-7-7-7--10--10-10-10-10--5--5-5-5-5--5--5-5-5-5-|
Eb|-7--7-7-7-7--8---8--8--8--8---3--3-3-3-3--5--5-5-5-5-| x2

[end of chorus 1]
eb|----7-----------------------------5~-|
Bb|------8--------8-----------3------7~-|
Gb|-9------9--------9-----------4----7~-|
Db|-9---------10------10-\-5------5--7~-|
Ab|-7---------10---------\-5---------5~-|
Eb|-7---------8----------\-3---------5~-|

[verse 3] - repeat verse 2

[chorus 2] - repeat chorus 1

[end of chorus 2] - play each chord round twice (except the E)
eb|-0--0-0-0-0-------------------8---8--8--8--8---3--3-3-3-3--5--5-5-5-5-|
Bb|-0--0-0-0-0-------------------8---8--8--8--8---3--3-3-3-3--7--7-7-7-7-|
Gb|-9--9-9-9-9--14--14-14-14-14--9---9--9--9--9---4--4-4-4-4--7--7-7-7-7-|
Db|-9--9-9-9-9--x---x--x--x--x---10--10-10-10-10--5--5-5-5-5--7--7-7-7-7-|
Ab|-7--7-7-7-7--12--12-12-12-12--10--10-10-10-10--5--5-5-5-5--5--5-5-5-5-|
Eb|-0--0-0-0-0--0---0--0--0--0---8---8--8--8--8---3--3-3-3-3--5--5-5-5-5-|

[outro] - same as intro

[lead] - played over outro
eb|------------------------------|    |-----| 
Bb|-12--12-12-12-12-(x3)-12------|    |-12~-|
Gb|-------------------------14-12|    |-----|
Db|------------------------------|    |-----|
Ab|------------------------------|    |-----|
Eb|------------------------------| x4 |-----| (ending note)

Key:
\ slide down
~ let ring
x dead notes
Tap to rate this tab
# A B C D E F G H I J K L M N O P Q R S T U V W X Y Z