Song name
# A B C D E F G H I J K L M N O P Q R S T U V W X Y Z

Alan Silvestri - Cast Away tab

-------------------------------------------------------------------------------
			     Cast Away Theme - Alan Silvestri
-------------------------------------------------------------------------------
Tabbed by:lmcoon
Email: lmcoon@hotmail.com

Tuning: Standard

Enjoy.

e|---------------------------------------------------------------------------|
B|---------------------------------------------------------------------------|
G|----8-8------------8-10----------10-12-13~-12~-10~-8~----------------------|
D|-10-----10-10-6-10------------------------------------8~-------------------|
A|---------------------------------------------------------------------------|
E|---------------------------------------------------------------------------|

e|---------------------------------------------------------------------------|
B|---------------------------------------------------------------------------|
G|-17~----15~-17~----13-15-17-20-20-20-17-13-15~-----------------------------|
D|---------------------------------------------------------------------------|
A|---------------------------------------------------------------------------|
E|---------------------------------------------------------------------------|

e|---------------------------------------------------------------------------|
B|---------------------------------------------------------------------------|
G|------------------------8-8-13-15-17-17~-----------8-8------------8-10~----|
D|-10~---8-10~-----6-8-10-------------------------10-----10-10-6-10----------|
A|---------------------------------------------------------------------------|
E|---------------------------------------------------------------------------|

e|---------------------------------------------------------------------------|
B|---------------------------------------------------------------------------|
G|-10-12-13~-12~-10~-8~----------13~-12~-10~-8~------------------------------|
D|----------------------8~----------------------8~---------------------------|
A|---------------------------------------------------------------------------|
E|---------------------------------------------------------------------------|

e|---------------------------------------------------------------------------|
B|---------------------------------------------------------------------------|
G|------------------------8-8-8-6--------------------------------------------|
D|-10~---8-10~-----6-8-10---------6-8~---------------------------------------|
A|---------------------------------------------------------------------------|
E|---------------------------------------------------------------------------|

e|---------------------------------------------------------------------------|
B|---------------------------------------------------------------------------|
G|------------------------8-8-13-15-17-17~----------8-8------------8-10~-----|
D|-10~---8-10~-----6-8-10------------------------10-----10-10-6-10-----------|
A|---------------------------------------------------------------------------|
E|---------------------------------------------------------------------------|

e|---------------------------------------------------------------------------|
B|---------------------------------------------------------------------------|
G|-10-12-13~-12~-10~-8~----------13~-12~-10~-8~----------/13-12-10-----------|
D|----------------------8~----------------------8~-----------------8~--------|
A|---------------------------------------------------------------------------|
E|---------------------------------------------------------------------------|

e|---------------------------------------------------------------------------|
B|---------------------------------------------------------------------------|
G|-/13-12-8-10~-------------------the-song-now-goes-into-the-ocean-noises----|
D|---------------8~~---6~~~--------where-every-once-in-awhile-one-of-these---|
A|---------------------------------------------riffs-is-played---------------|
E|---------------------------------------------------------------------------|

I know you guys know who this is, but in case not here is a list of movies that he has 
the music for at:

http://www.amazon.com/Alan-Silvestri/artist/B000AQU3WY
Tap to rate this tab
# A B C D E F G H I J K L M N O P Q R S T U V W X Y Z