Song name
# A B C D E F G H I J K L M N O P Q R S T U V W X Y Z

Alesana - The Thespian tab

The Thespian (SOLO!) - Alesana

If there are any mistakes in my tab, please correct me!
<3hellokrysta. :]

EMAIL: LULZITSKRYSTA@LIVE.COM

DROP D.

2:14-
e|--------------------------------------------------------------------------|
B|-----13-----------------------12/13---------------------------------------|
G|-------14--12-12h14-14-12-10-------14----12-10-12-13h14-------------------|
D|10/12---------------------------------------------------------------------|
A|--------------------------------------------------------------------------|
E|--------------------------------------------------------------------------|

2:23-32.
e|--------------------------------------------------------------------------|
B|--------------------------------------------------------------------------|
G|-----10h12-10h12-12h14-12-12-12/14-14-12-10-------------12----------------|
D|10h12---------------------------------------12---7/12-15--15-14-----------|
A|---------------------------------------------------------------15\--------|
E|--------------------------------------------------------------------------|
Tap to rate this tab
# A B C D E F G H I J K L M N O P Q R S T U V W X Y Z