Song name
# A B C D E F G H I J K L M N O P Q R S T U V W X Y Z

All-american Rejects - Hero tab

-------------------------------------------------------------------------------
			     Hero - All american rejects
-------------------------------------------------------------------------------
Tabbed by:  Matts4reel
Email:matt.rumfellow@gmail.com

Tuning:drop d
  Verse:
e|-----------------------------------------------------------------------------|
B|-----------------------------------------------------------------------------|
G|-----------------------------------------------------------------------------|
D|---0-0--00-0--00-0-------3-3--33-3--33-3-------0-0--00-0--00-0---------------|
A|---0-0--00-0--00-0--x3---3-3--33-3--33-3--x3---0-0--00-0--00-0-x2------------|
D|---0-0--00-0--00-0-------3-3--33-3--33-3-------0-0--00-0--00-0---------------|
 (------------------------P.M.-------------------------------------------------|
  Pre chorus:
e|-----------------------------------------------------------------------------|
B|-----------------------------------------------------------------------------|
G|-----------------------------------------------------------------------------|
D|--3-3--33-3--33-3--33-3---55--55-5--55-5--55-5-------------------------------|
A|--3-3--33-3--33-3--33-3---55--55-5--55-5--55-5------------x2-----------------|
D|--3-3--33-3--33-3--33-3---55--55-5--55-5--55-5-------------------------------|
(--------------P.M.------------------------------------------------------------|
   Bridge:
e|---------------------------------------------------------------------------|
B|---------------------------------------------------------------------------|
G|---------------------------------------------------------------------------|
D|---0-0-3-0-3-0-0-0-3-5-6-6-------------------------------------------------|
A|---0-0-3-0-3-0-0-0-3-5-6-6------x4-----------------------------------------|
D|---0-0-3-0-3-0-0-0-3-5-6-6-------------------------------------------------|
   Chorus:
e|---------------------------------------------------------------------------|
B|---------------------------------------------------------------------------|
G|---------------------------------------------------------------------------|
D|---0------10-------5-------------------------------------------------------|
A|---0-x4---10-x4----5-x4------x4--------------------------------------------|
D|---0------10-------5-------------------------------------------------------|END...
   That's the whole song except the solo and it should be pretty accurate as far as I can tell.  Peace.


| /  slide up
| \  slide down
| h  hammer-on
| p  pull-off
| ~  vibrato
| +  harmonic
| x  Mute note
===============================================================================
Tap to rate this tab
 
# A B C D E F G H I J K L M N O P Q R S T U V W X Y Z