All Time Low - Poison tab

-----------------------------------------------------------------------------
			     POISON - All Time Low
-----------------------------------------------------------------------------

Tuning:Drop D

This is my first tab so im sorry if it isnt completly acurate but its what i can hear.

- the strumming is easy enough to work out.

this is the intro and the verse. play this 4 times.
e|---------------------------------|
B|---------------------------------|
G|----------5---------------5------|
D|--------7---7-----------7---7----|
A|----7-7------7------7-7------7---|
D|-7-7----------7--7-7----------7--|

e|---------------------------------|
B|---------------------------------|
G|----------2---------------2------|
D|--------3---3-----------3---3----|
A|----3-3------3------3-3------3---|
D|-3-3----------3--3-3----------3--|

Chorus

e|----------------------5----------------|
B|----------------------6----------------|
G|--5---------------5---7----------------|
D|--5--3--7---3--7--5---7--3--5--7-------|
A|--3--3--7---3--7--3---5--3--5--7-------|
D|-----3--7---3--7---------3--5--7-------|

Interlude

e|-------------|
B|-------------|
G|-------------|
D|--7--3-------|
A|--7--3-------|
D|--7--3-------|

Verse 2

  play this 4 times.
e|---------------------------------|
B|---------------------------------|
G|----------5---------------5------|
D|--------7---7-----------7---7----|
A|----7-7------7------7-7------7---|
D|-7-7----------7--7-7----------7--|

e|---------------------------------|
B|---------------------------------|
G|----------2---------------2------|
D|--------3---3-----------3---3----|
A|----3-3------3------3-3------3---|
D|-3-3----------3--3-3----------3--|

Chorus

e|----------------------5----------------|
B|----------------------6----------------|
G|--5---------------5---7----------------|
D|--5--3--7---3--7--5---7--3--5--7-------|
A|--3--3--7---3--7--3---5--3--5--7-------|
D|-----3--7---3--7---------3--5--7-------|

Interlude

e|---------------|
B|---------------|
G|--------5------|
D|--7--3--5--5---|
A|--7--3--3--5---|
D|--7--3-----5---|

Bridge - played twice

e|--------------------5--------|
B|--------------------6--------|
G|--------------------7--------|
D|--7--3--7--3--7--3--7--------|
A|--7--3--7--3--7--3--5--------|
D|--7--3--7--3--7--3-----------|

Chorus

e|----------------------5----------------|
B|----------------------6----------------|
G|--5---------------5---7----------------|
D|--5--3--7---3--7--5---7--3--5--7-------|
A|--3--3--7---3--7--3---5--3--5--7-------|
D|-----3--7---3--7---------3--5--7-------|

Outro

e|--------------|  e|-----|
B|--------------|  B|-----|
G|--------5-----|  G|-----| let it ring
D|--7--3--5--5--|  D|--7--|
A|--7--3--3--5--|  A|--7--|
D|--7--3-----5--|  D|--7--|
Tap to rate this tab
 
# A B C D E F G H I J K L M N O P Q R S T U V W X Y Z