Song name
# A B C D E F G H I J K L M N O P Q R S T U V W X Y Z

Anthony Green - Miracle Sun Acoustic tab

Tuning: Standard
Listen to the song for strumming, its pretty easy to pick up

x=finger mute
/=slide

     ...Where do you go....(Repeat 4 times)
e----------x-------------x-------------0-----------x--------------|
B----------12------------12------------7-----------10-------------|
G----------0-------------0-------------7-----------0--------------|
D----------12------------11------------0-----------9--------------|
A----------0-------------0-------------0-----------0--------------|
E----------x-------------x-------------x-----------x--------------|

 ...or i'll sleep all day...       ...and miss everything...    
e----------x---------------/-------x------------------------------|
B----------5---------------/-------7------------------------------|
G----------0---------------/-------0------------------------------|
D----------5---------------/-------7------------------------------|
A----------0---------------/-------0------------------------------|
E----------x---------------/-------x------------------------------|

          
         ....Miracle sun... (Strum each once)      
e----------0-------------0---------------------------------------|
B----------3-------------2---------------------------------------|
G----------0-------------0---------------------------------------|
D----------2-------------2---------------------------------------|
A----------0-------------0---------------------------------------|
E----------x-------------x---------------------------------------|


   ...Stay with me....
e----------2-------------0-------------0-------------------------|
B----------0-------------3-------------2-------------------------|
G----------0-------------0-------------0-------------------------|
D----------2-------------2-------------2-------------------------|
A----------0-------------0-------------0-------------------------|
E----------x-------------x-------------x-------------------------|

Thats it, repeat as many times as you want
Tap to rate this tab
 
# A B C D E F G H I J K L M N O P Q R S T U V W X Y Z