Song name
# A B C D E F G H I J K L M N O P Q R S T U V W X Y Z

Anthony Green - Ripped Apart tab

-----------------------------------------------------------------
Ripped Apart (Original) - Anthony Green
-----------------------------------------------------------------
Tuning: Whole Step Down (DGCFAD)

I tabbed this song off of this video: http://www.youtube.com/watch?v=pHrvX7o_Wm0

Intro and verse alternate between these two power chords (799XXX) (X799XX)

Intro....     If    What you hear and       see......
d|-X-X--------X-----X-----------------------X-----------------|
A|-X-X--------X-----X-----------------------X-----------------|
F|-X-9--------X-----9-----------------------X-----------------|
C|-9-9--------9-----9-----------------------9-----------------|
G|-9-7--------9-----7-----------------------9-----------------|
D|-7-X--------7-----X-----------------------7-----------------|

 ...Honest,    It rips you apart (the 10 slides to 9 after he says "apart")
d|--X----------X---------------------------------------------------|
A|--X----------X---------------------------------------------------|
F|--X----------12--------------------------------------------------|
C|--9----------12--------------------------------------------------|
G|--9----------10/9------------------------------------------------|
D|--7----------X---------------------------------------------------|

Verse (Alternates - Listen for rhythm and when to alternate)

d|-X----X---------------------------------------------------------|
A|-X----X---------------------------------------------------------|
F|-X----9---------------------------------------------------------|
C|-9----9---------------------------------------------------------|
G|-9----7---------------------------------------------------------|
D|-7----X---------------------------------------------------------|


 ...Ready      It rips you apart (the 10 slides to 9 after he says "apart")
d|--X----------X-----------------------------------------------------|
A|--X----------X-----------------------------------------------------|
F|--X----------12----------------------------------------------------|
C|--9----------12----------------------------------------------------|
G|--9----------10/9--------------------------------------------------|
D|--7----------X-----------------------------------------------------|

Chorus

    Denying my body the impulses, Deny my impulses keep them inside
d|--X-------------------------X------------------------------X-----------|
A|--X-------------------------X------------------------------X-----------|
F|--X-------------------------X------------------------------X-----------|
C|--7-------------------------9------------------------------10----------|
G|--7-------------------------9------------------------------10----------|
D|--5-------------------------7------------------------------8-----------|


    No body notices, no body wonders... ...Where it came from
d|--X----------------X-------------X----------------X----X--X----X--|
A|--X----------------X-------------X----------------X----X--X----X--|
F|--12---------------12------------X----------------X----X--12---12-|
C|--12---------------12------------7----------------9----10-12---12-|
G|--10---------------9-------------7----------------9----10-10---9--|
D|--X----------------X-------------5----------------7----8--X----X--|


The rest of the song is the same. Pretty simple.
Tap to rate this tab
# A B C D E F G H I J K L M N O P Q R S T U V W X Y Z