Song name
# A B C D E F G H I J K L M N O P Q R S T U V W X Y Z

Anthrax - Indians tab

-------------------------------------------------------------------------------
			     Indians - Anthrax
-------------------------------------------------------------------------------
Tabbed by: Mikethespud
Email: mike.mc.combees@hotmail.com

Tuning: Standard
 1                                    2
e|----------------------------------|---------------------------------| 
B|--------5h6-5----------5h6-5------|-------7h8-7----------7h8-7------|
G|--5--4-----------5--4-------------|-7--6-----------7--6-------------|
D|----------------------------------|---------------------------------|
A|----------------------------------|---------------------------------|
E|----------------------------------|---------------------------------|

  3                                  4
e|----------------------------------|---------------------------------| 
B|----------------------------------|---------------------------------|
G|--5--4--5p4-------5--4--5p4-------|-7--6--7p6-------7--6--7p6-------|
D|-------------5-5-------------5-5--|------------7-7-------------7-7--|
A|----------------------------------|---------------------------------|
E|----------------------------------|---------------------------------|

  5                                  6
e|----------------------------------|---------------------------------|
B|----------------------------------|---------------------------------|
G|----------------------------------|------10-9-----------------------|
D|------10-9------------------------|-------8-7-----------------------|
A|--7-6--8-7------------------------|--7-6----------------------------|
E|--5-4------0-0-0-0-0-0-0-0--------|--5-4------0000000000000000------|
            PM--------------|                   PM---------------|
  7                                  8
e|----------------------------------|---------------------------------|
B|----------------------------------|---------------------------------|
G|----------------------------------|---------------------------------|
D|----------------------------------|---------------------------------|
A|--5-----5-----5-------4-5-4-------|--5-----5-----5-------4-2-4------|
E|--3-0-0-3-0-0-3-0-0-0-2-3-2-------|--3-0-0-3-0-0-3-0-0-0-2-0-2------|
     PM--|  ---|  -----|                PM--|  ---|  -----|
  9
e|----------------------------------|
B|----------------------------------|
G|----------------------------------|
D|----------------------------------|
A|----------------------------------|
E|--0-0-0-0-0-0-0-0-2-2-2-2-2-2-2-2-|
   PM------------------------------|
  10                                 11
e|----------------------------------|---------------------------------|
B|----------------------------------|---------------------------------|
G|----------------------------------|---------------------------------|
D|------9-----9-----9\7-----10------|------9-----9-----9\7---12-11----|
A|------7-----7-----7\5-9-8-8-------|------7-----7-----7\5-9-10--9----|
E|--0-0---0-0---0-0-----7-6---------|--0-0---0-0---0-0-----7----------|
   PM--|  ---|  ---|                  PM--|  ---|  ---|
  12                       13
e|------------------------|--------------|
B|------------------------|--------------|
G|------------------------|--------------|
D|------------------------|-5-4-8-7------|
A|--5-2-2-2-2-2-2-222-3-2-|-3-2-6-5-8----|
E|--3-0-0-0-0-0-0-000-1-0-|---------6----|
                           (sometimes this 
                            part is PM'd)


************************************

| /   slide up
| \   slide down
| h   hammer-on
| p   pull-off
| ~   vibrato
| +   harmonic
| x   Mute note
| b   Bend
| pb  Pre-bend
| br  Bend release
| pbr Pre-bend release
| brb Bend release bend

************************************
Tap to rate this tab
# A B C D E F G H I J K L M N O P Q R S T U V W X Y Z