Song name
# A B C D E F G H I J K L M N O P Q R S T U V W X Y Z

Apocalyptica - Drive tab

-------------------------------------------------------------------------------
			     DRIVE - Apocalyptia
-------------------------------------------------------------------------------
Tabbed by: 0GibsonLesPaul0
Email: ---------

Tuning: EADGBe


INTRO

E|-------------------------------------------------------|
B|-------------------------------------------------------|
G|-9-9-9-9-9-9-9-9-9-9-9-9-9-9---------------------------|
D|-9-9-9-9-9-9-9-9-9-9-9-9-9-9-3-3-3-3-5-5-5-5-8-8-8-8---|
A|-7-7-7-7-7-7-7-7-7-7-7-7-7-7-3-3-3-3-5-5-5-5-8-8-8-8---|
E|-0-0-0-0-0-0-0-0-0-0-0-0-0-0-1-1-1-1-3-3-3-3-4-4-4-4---|
P.M.-----------------------------------------------------|


VERSE

E|-/12---10--------------------|-/12---10---------------------|
B|---------13-12-10------------|---------13-12-10-------------|
G|-----------------12-10-9----9|-----------------12-10-12----9|
D|-----------------------------|------------------------------|
A|-----------------------------|------------------------------|
E|-----------------------------|------------------------------|

E|-/12---10--------------------|---------------------------------|
B|---------13-12-10------------|---------10---10-12-13-10--------|
G|-----------------12-10-9----9|-9-10-12----12-------------------|
D|-----------------------------|---------------------------------|
A|-----------------------------|---------------------------------|
E|-----------------------------|---------------------------------|


CHORUS
E|-------------------------------------------------------------------------------------------|
B|-------------------------------------------------------------------------------------------|
G|-------------------------------------------------------------------------------------------|
D|-7-7-7--8-7-8-7-8-7--7-7-7-8-7-8-7-8-7--7-7-7--8-7-8-7-8-7--7-7-7--8-7-8-7-8-7-8-7-8-7-8-7-|
A|-7-7-7---------------7-7-7--------------7-7-7---------------7-7-7--------------------------|
E|-5-5-5---------------5-5-5--------------5-5-5---------------5-5-5--------------------------|


VERSE
E|------------------------------------------------1-3-6---4-6---7-4-3----|
B|-----------------------------------------------------------------------|
G|-4---7-6-4---0-1-3----1-3---4-6-4p3h4---6-7-4--------------------------|
D|-----------------------------------------------------------------------|
A|-----------------------------------------------------------------------|
E|-----------------------------------------------------------------------|


CHORUS (key change to G minor)

E|-------------------------------------------------------------------------------|
B|-------------------------------------------------------------------------------|
G|-------------------------------------------------------------------------------|
D|-5-5-5--6-5-6-5-6-5--5-5-5--6-5-6-5-6-5--5-5-5--6-5-6-5-6-5--5--6-5-6-5-6-5----|
A|-5-5-5---------------5-5-5---------------5-5-5---------------5-----------------|
E|-3-3-3---------------3-3-3---------------3-3-3---------------3-----------------|


VERSE (key change to A minor)

E|-----------------|-----------------|-----------------------------|
B|-----------------|-----------------|-----------------------------|
G|-9--7------------|-9--7--------7---|-9--7------------------7-----|
D|------10-9-10-7--|------10-9-10----|------10-9-10---7-9--10------|
A|---------------7-|---------------7-|---------------------------7-|
E|-----------------|-----------------|-----------------------------|

E|-----------------|---------------------------------7-8---7----7-8-10-12-|
B|-----------------|-----------------------------7-10--------10-----------|
G|-9--7------------|-9--7-------7-9---7-9---10-9--------------------------|
D|------10-9-10-7--|-----10-9-10---10-------------------------------------|
A|---------------7-|------------------------------------------------------|
E|------------------------------------------------------------------------|

CHORUS
E|-------------------------------------------------------------------------------------------|
B|-------------------------------------------------------------------------------------------|
G|-------------------------------------------------------------------------------------------|
D|-7-7-7--8-7-8-7-8-7--7-7-7-8-7-8-7-8-7--7-7-7--8-7-8-7-8-7--7-7-7--8-7-8-7-8-7-8-7-8-7-8-7-|
A|-7-7-7---------------7-7-7--------------7-7-7---------------7-7-7--------------------------|
E|-5-5-5---------------5-5-5--------------5-5-5---------------5-5-5--------------------------|


VERSE (key change to G minor)

E|-10-8-------------------|-10-8--------------------|-10-8-------------------|--|
B|------11-10-8-----------|------11-10-8------------|------11-10-8--------------|
G|--------------10-8-7---7|--------------10-8-10---7|--------------10-8-7---7---|
D|------------------------|-------------------------|---------------------------|
A|------------------------|-------------------------|---------------------------|
E|------------------------|-------------------------|---------------------------|


CHORUS
E|-------------------------------------------------------------------------------|
B|-------------------------------------------------------------------------------|
G|-------------------------------------------------------------------------------|
D|-5-5-5--6-5-6-5-6-5--5-5-5--6-5-6-5-6-5--5-5-5--6-5-6-5-6-5--5--6-5-6-5-6-5----|
A|-5-5-5---------------5-5-5---------------5-5-5---------------5-----------------|
E|-3-3-3---------------3-3-3---------------3-3-3---------------3-----------------|


VERSE (key change to A minor)

E|-----------------|-----------------|-----------------------------|
B|-----------------|-----------------|-----------------------------|
G|-9--7------------|-9--7--------7---|-9--7------------------7-----|
D|------10-9-10-7--|------10-9-10----|------10-9-10---7-9--10------|
A|---------------7-|---------------7-|---------------------------7-|
E|-----------------|-----------------|-----------------------------|

E|-----------------|---------------------------------7-8---7----7-8-10-12-|
B|-----------------|-----------------------------7-10--------10-----------|
G|-9--7------------|-9--7-------7-9---7-9---10-9--------------------------|
D|------10-9-10-7--|-----10-9-10---10-------------------------------------|
A|---------------7-|------------------------------------------------------|
E|------------------------------------------------------------------------|

| /  slide up
| \  slide down
| h  hammer-on
| p  pull-off
| ~  vibrato
| +  harmonic
| x  Mute note
===============================================================================
Tap to rate this tab
# A B C D E F G H I J K L M N O P Q R S T U V W X Y Z