Arch Enemy - No Gods No Masters tab

Rhytm guitar for Arch Enemy's song No Gods, No Masters

Riff 1 (Repeat 2x)

 C|----------------------------------------------|
 G|----------------------------------------------|
D#|-----------9-7-9------9-7-9-------2-------7---|
A#|-2---------9-7-9------9-7-9-------2-------7---|
 F|-2---------7-5-7------7-5-7-------0-------5---|
 C|-0---0-0-0--------0-0-------0-0-0-------------|

 C|----------------------------------------------|
 G|----------------------------------------------|
D#|-9-7-9-----9-7-9----------2-------5-------7---|
A#|-9-7-9-----9-7-9----------2-------5-------7---|
 F|-7-5-7-----7-5-7----------0-------3-------5---|
 C|-------0-0--------0-0-0-0---------------------|



Riff 2

 C|------------------------------------------------------------------|
 G|-8-8---8---8---8-5-5---5---5---5-7-7---7---7---7-3-3---3---3---3--|
D#|-9-9---9---9---9-5-5---5---5---5-7-7---7---7---7-4-4---4---4---4--|
A#|-9-9---9---9---9-5-5---5---5---5-7-7---7---7---7-4-4---4---4---4--|
 F|-7-7---7---7---7-3-3---3---3---3-5-5---5---5---5-2-2---2---2---2--|
 C|-----0---------------0---------------0---------------0------------|

 C|------------------------------------------------------------------|
 G|-8-8---8---8---8-5-5---5---5---5-7-7---7---7---7-3-3---5---5---5--|
D#|-9-9---9---9---9-5-5---5---5---5-7-7---7---7---7-4-4---6---6---6--|
A#|-9-9---9---9---9-5-5---5---5---5-7-7---7---7---7-4-4---6---6---6--|
 F|-7-7---7---7---7-3-3---3---3---3-5-5---5---5---5-2-2---4---4---4--|
 C|-----0---------------0---------------0---------------0------------|



Riff 3

 C|------------------------------------------------------------------------|
 G|------------------------------------------------------------------------|
D#|--11-11----11---11---11-7-7---7---7---7-9-9---9---9---9-6-6---6---6---6-|
A#|--11-11----11---11---11-7-7---7---7---7-9-9---9---9---9-6-6---6---6---6-|
 F|--9--9--9--9----9----9--5-5-5-5---5---5-7-7-7-7---7---7-4-4-4-4---4---4-|
 C|------------------------------------------------------------------------|

 C|------------------------------------------------------------------------|
 G|------------------------------------------------------------------------|
D#|--11-11----11---11---11-7-7---7---7---7-9-9---9---9---9-8---8-8---8-8---|
A#|--11-11----11---11---11-7-7---7---7---7-9-9---9---9---9-8---8-8---8-8---|
 F|--9--9--9--9----9----9--5-5-5-5---5---5-7-7-7-7---7---7-6---6-6---6-6---|
 C|------------------------------------------------------------------------|



Riff 1 (1x)

Clean guitar

 C|--------0---------------0--------------0--------0--|
 G|------0---------------0--------------3----------0--|
D#|----4---------------5--------------2------------0--|
A#|--2---------------2--------------4-----------------|
 F|---------------------------------------------------|
 C|---------------------------------------------------|



Riff 2

Riff 3

Riff 1 (2x)

Riff 4 (4x)

 C|----------------------------------------------------------|
 G|----------------------------------------------------------|
D#|--8-----9-----10-----12-----10----12-----14----15-15-15---|
A#|--8-----9-----10-----12-----10----12-----14----15-15-15---|
 F|--6-----7-----9------10-----9-----10-----12----13-13-13---|
 C|----0-0---0-0----0-0----0-0----0-0---0-0----0-0-----------|



Riff 4.2

 C|--------------------------------------------------------|
 G|--------------------------------------------------------|
D#|--------------------------------------------------------|
A#|--------------------------------------------------------|
 F|-6-6-6-6-6-6-7-7-7-7-7-7-9-9-9-9-9-9-10-10-10-10-10-10--|
 C|--------------------------------------------------------|

 C|--------------------------------------------------------------------|
 G|--------------------------------------------------------------------|
D#|--------------------------------------------------------------------|
A#|--------------------------------------------------------------------|
 F|-9-9-9-9-9-9-10-10-10-10-10-10-12-12-12-12-12-12-13-13-13-13-13-13--|
 C|--------------------------------------------------------------------|



Clean guitar (2x first two parts and 1 time the last part on the end)

 C|------------------------------------------|
 G|-10-8-10-----10-8-10-----10-8-10---8-10---|
D#|-9--7-9------9--7-9------9--7-9----7-9----|
A#|---------0-0---------0-0---------0--------|
 F|------------------------------------------|
 C|------------------------------------------|

 C|---------------------------------------|
 G|-11----11----11-10-8-5---5-5-5-6-8-----|
D#|-10-10-10-10-10-9--7-4-4-4-4-4-5-7-----|
A#|---------------------------------------|
 F|---------------------------------------|
 C|---------------------------------------|

 C|--1-------|
 G|--3-------|
D#|--2-------|
A#|--0-------|
 F|----------|
 C|----------|



Riff 1 (2x)

Outro



Tabbed by Gašper Čefarin (DarkBlackPoison)
Tap to rate this tab
 
# A B C D E F G H I J K L M N O P Q R S T U V W X Y Z