Song name
# A B C D E F G H I J K L M N O P Q R S T U V W X Y Z

Arctic Monkeys - Cornerstone tab

-------------------------------------------------------------------------------
			     Cornerstone solo - Arctic Monkeys
-------------------------------------------------------------------------------
Tabbed by:
Email:

Tuning: Standard



e|--5----2----4--------------------------------------------------------------|
B|-----------------5----2---------2----3----2-----------------2----5---------|
G|----------------------------------------------4----2----4------------4b----|
D|---------------------------------------------------------------------------|
A|---------------------------------------------------------------------------|
E|---------------------------------------------------------------------------|

e|--2----3----2---------------------5----2----4--------------5----4----2-----|
B|-----------------4----2----4---------------------5----2--------------------|
G|---------------------------------------------------------------------------|
D|---------------------------------------------------------------------------|
A|---------------------------------------------------------------------------|
E|---------------------------------------------------------------------------|

e|---------------------------------------------------------------------------|
B|--5----2-------------------------------2-----------------------------------|
G|------------4----5~----4----5~----4---------2------------------------------|
D|---------------------------------------------------------------------------|
A|---------------------------------------------------------------------------|
E|---------------------------------------------------------------------------|



| b  bend
| /  slide up
| \  slide down
| h  hammer-on
| p  pull-off
| ~  vibrato
| +  harmonic
| x  Mute note
===============================================================================
Tap to rate this tab
# A B C D E F G H I J K L M N O P Q R S T U V W X Y Z